""; ?> Pardon Me by Incubus - guitar chords, guitar tabs and lyrics - chordie

Pardon Me

Incubus

 C#m7Asus2C#m7AsuE54/4
                               Gtr I
< < < < <
||--0----0----|-0----0--0---||
||o-0----0----|-0----0--0--o||
||--4----4----|-4----4--4---||
||--2----2----|-2----2--2---||
||o-4----0----|-4----0-----o||
||------------|-------------||

Pre-Verse
 C#m7Asus2C#m7AsuE5C#m7Asus2C#m7AsuE5
  <    <      <    <  <    <    <      <    <  <
|-0----0----|-0----0--0--|-0----0----|-0----0--0--|
|-0----0----|-0----0--0--|-0----0----|-0----0--0--|
|-4----4----|-4----4--4--|-4----4----|-4----4--4--|
|-2----2----|-2----2--2--|-2----2----|-2----2--2--|
|-4----0----|-4----0-----|-4----0----|-4----0-----|
|-----------|------------|-----------|------------|

1.
 C#sus2Asus2C#sus2Asus2E5
    Gtr II    
||--4-4-4-4-4-4-0-0-0-0-0-0-0-|-4-4-4-4-4-4-0-0-0-0-0-0-0--||
||o-4-4-4-4-4-4-0-0-0-0-0-0-0-|-4-4-4-4-4-4-0-0-0-0-0-0-0-o||
||--6-6-6-6-6-6-2-2-2-2-2-2-2-|-6-6-6-6-6-6-2-2-2-2-4-4-4--||
||--6-6-6-6-6-6-2-2-2-2-2-2-2-|-6-6-6-6-6-6-2-2-2-2-2-2-2--||
||o-4-4-4-4-4-4-0-0-0-0-0-0-0-|-4-4-4-4-4-4-0-0-0-0-2-2-2-o||
||----------------------------|---------------------0-0-0--||

2.
 C#sus2Esus2B5A5G#m7Emaj7sus2
                                  Gtr I 
<
|-4-4-4-4-4s7-7-7-7-----------||--11----(11)----|
|-4-4-4-4-4s7-7-7-7-----------||o---------------|
|-6-6-6-6-6s9-9-9-9-----------||--11----(11)----|
|-6-6-6-6-6s9-9-9-9-9-9-9-7-7-||---9-----(9)----|
|-4-4-4-4-4s7-7-7-7-9-9-9-7-7-||o-11p=====7-----|
|-------------------7-7-7-5-5-||----------------|

Eb7+5 NC#madd2
Gtr I
< >
|-------------|--0-(0)-(0)-(0)-(0)---|
|-0----(0)----|--4-(4)-(4)-(4)-(4)---|
|-6----(6)----|----------------------|
|-5----(5)----|----------------------|
|-6----(6)----|----------------------|
|-------------|----------------------|

Dsus2add6 NCmadd2
< >
|-0----(0)----|--0-(0)-(0)-(0)-(0)---|
|-0----(0)----|--4-(4)-(4)-(4)-(4)---|
|-7----(7)----|----------------------|
|-7----(7)----|----------------------|
|-5----(5)----|----------------------|
|-------------|----------------------|

Emaj7sus2+11/B NCmadd2
< >
|-11----(11)----|--0-(0)-(0)-(0)-(0)---|
|-11----(11)----|--4-(4)-(4)-(4)-(4)---|
|-11----(11)----|----------------------|
|--9-----(9)----|----------------------|
|--7-----(7)----|----------------------|
|--7-----(7)----|----------------------|

 Asus2C#sus2
|-0-0-0-0-0-0-0-0-0-0-0-0-0-0-0-0-0-0-0-0-4-|
|-0-0-0-0-0-0-0-0-0-0-0-0-0-0-0-0-0-0-0-0-4-|
|-2-2-2-2-2-2-2-2-2-2-2-2-2-2-2-2-2-2-2-2-6-|
|-2-2-2-2-2-2-2-2-2-2-2-2-2-2-2-2-2-2-2-2-6-|
|-0-0-0-0-0-0-0-0-0-0-0-0-0-0-0-0-0-0-0-0-4-|
|-------------------------------------------|

Chorus
 C#sus2Bsus4A5E5C#sus2
  Gtr II    
|-4-4-4-4-4-4-4-------------0-0-|-0-0-0-0-0-------------------4--|
|-4-4-4-4-4-4-4-------2-2---0-0-|-0-0-0-0-0-------------------4--|
|-6-6-6-6-6-6-6-4-4-4-4-4-2-2-2-|-2-2-2-2-2-------------------6--|
|-6-6-6-6-6-6-6-2-4-4-4-4-2-2-2-|-2-2-2-2-2-2-4-2-2-2-4-2-2-2-6--|
|-4-4-4-4-4-4-4-2-2-2-2-2-0-0-0-|-0-0-0-0-0-2-4-2-2-2-4-2-2-2-4--|
|-------------------------------|-----------0-2-0-0-0-2-0-0-0----|

 C#sus2Bsus4A5E5C#sus2
|-4-4-4-4-4-4-4-------------0-0-|-0-0-0-0-0-------------------4--|
|-4-4-4-4-4-4-4-------2-2---0-0-|-0-0-0-0-0-------------------4--|
|-6-6-6-6-6-6-6-4-4-4-4-4-2-2-2-|-2-2-2-2-2-------------------6--|
|-6-6-6-6-6-6-6-2-4-4-4-4-2-2-2-|-2-2-2-2-2-2-4-2-2-2-4-2-2-2-6--|
|-4-4-4-4-4-4-4-2-2-2-2-2-0-0-0-|-0-0-0-0-0-2-4-2-2-2-4-2-2-2-4--|
|-------------------------------|-----------0-2-0-0-0-2-0-0-0----|

 C#sus2Asus2B5/F#B5/F#
|-4-4-4-4-4-4-4-0-0-0-0----------|-------0------------0-0-0-0-0----|
|-4-4-4-4-4-4-4-0-0-0-0----------|-------0-0-0-0-0-x/-0-0-0-0-0-4--|
|-6-6-6-6-6-6-6-2-2-2-2-/4-4-4-4-|-4-4-4-4-4-4-4-4-x/-4-4-4-4-4-6--|
|-6-6-6-6-6-6-6-2-2-2-2-/4-4-4-4-|-4-4-4-4-4-4-4-4-x/-4-4-4-4-4-6--|
|-4-4-4-4-4-4-4-0-0-0-0-/2-2-2-2-|-2-2-2---2-2-2-2-x/-----------4--|
|-----------------------/2-2-2-2-|-2-2-2---2-2-2-------------------|

 C#sus2Asus2B5/F#B5/F#E5F#E5
|-----4-4-4-4-4-4-0-0-0-0----------|--------------------------|
|-(4)-4-4-4-4-4-4-0-0-0-0----------|--------------------------|
|-(6)-6-6-6-6-6-6-2-2-2-2-/4-4-4-4-|-4-4-4-4-4-------------x--|
|-(6)-6-6-6-6-6-6-2-2-2-2-/4-4-4-4-|-4-4-4-4-4-2-4-2-2-2-2-x--|
|-(4)-4-4-4-4-4-4-0-0-0-0-/2-2-2-2-|-2-2-2-2-2-2-4-2-2-2-2-x--|
|-------------------------/2-2-2-2-|-2-2-2-2-2-0-2-0-0-0-0-x--|

1. 2.
< < < < <
|---------|----------||-0----0----|-0----0--0--|
|---------|---------o||-0----0----|-0----0--0--|
|---------|----------||-4----4----|-4----4--4--|
|---------|----------||-2----2----|-2----2--2--|
|---------|---------o||-4----0----|-4----0-----|
|---------|----------||-----------|------------|

< < < < <
|-0----0----|-0----0--0--|
|-0----0----|-0----0--0--|
|-4----4----|-4----4--4--|
|-2----2----|-2----2--2--|
|-4----0----|-4----0-----|
|-----------|------------|

Bridge
 C#m7Asus2C#m72/4
                     Gtr I 
< < < < < < < <
|-----------|---------0-(0)-|-----------|-0----|
|-0----0----|-0----0--0-(0)-|-0----0----|-0----|
|-4----4----|-4----4--4--4--|-4----4----|-4----|
|-2----2----|-2----2--2--2--|-2----2----|-2----|
|-4----0----|-4----0--------|-4----0----|-4----|
|-----------|---------------|-----------|------|

 Aadd2B5/F#E5F#E5F#E5C#sus2Asus24/4
                                                           Gtr II
|-0-0-0-0-0-0-0---||-------------------------------|-4-4-4-4-4-4-0-----0-0-0--|
|-0-0-0-0-0-0-0-4-||-------------------------------|-4-4-4-4-4-4-0-----0-0-0--|
|-6-6-6-6-6-6-6-6-||-4-4-4-4-4---------------------|-6-6-6-6-6-6-4-----4-4-4--|
|---------------6-||-4-4-4-4-4-2-4-2-2-2-4-2-2-2-2-|-6-6-6-6-6-6-2-2-2-2-2-2--|
|---------------4-||-2-2-2-2-2-2-4-2-2-2-4-2-2-2-2-|-4-4-4-4-4-4-0-0-0-0-0-0--|
|-----------------||-2-2-2-2-2-0-2-0-0-0-2-0-0-0-0-|--------------------------|

 C#sus2Asus2C#5/AbE5/BB7sus4/A
|-4-4-4-4-4-4-0-0-0-0-0-0-|-------------------0-0-0-0----|
|-4-4-4-4-4-4-0-0-0-0-0-0-|-----------------7-0-0-0-0----|
|-6-6-6-6-6-6-4-4-4-4-4-4-|-6-6-6-6-6-9-9-9-9------------|
|-6-6-6-6-6-6-2-2-2-2-2-2-|-6-6-6-6-6-9-9-9-9-9-9-7-7----|
|-4-4-4-4-4-4-0-0-0-0-0-0-|-4-4-4-4-4-7-7-7-7-9-9-7-7----|
|-------------------------|-4-4-4-4-4-7-7-7-7-7-7-5-5-0--|
|-4-4-4-4-4-4-0-0-0-0-0--|-(0)----*|
|-4-4-4-4-4-4-0-0-0-0-0--|-(0)----*|
|-6-6-6-6-6-6-4-4-4-4-4--|-(4)----*|
|-6-6-6-6-6-6-2-2-2-2-2--|-(2)----*|
|-4-4-4-4-4-4-0-0-0-0-2--|-(2)----*|
|---------------------0--|-(0)----*|

Tablature Legend
----------------

h - hammer-on
p - pull-off
b - bend
pb - pre-bend
r - bend release (if no number after the r, then release immediately)
/\ - slide into or out of (from/to "nowhere")
s - legato slide
S - shift slide
- natural harmonic
(n) - artificial harmonic
n(n) - tapped harmonic
~ - vibrato
tr - trill
T - tap
TP - trem. picking
PM - palm muting
\n/ - tremolo bar dip; n = amount to dip
\n - tremolo bar down
n/ - tremolo bar up
/n\ - tremolo bar inverted dip
= - hold bend; also acts as connecting device for hammers/pulls
<> - volume swell (louder/softer)
x - on rhythm slash represents muted slash
o - on rhythm slash represents single note slash
Misc Legend
-----------

| - bar
|| - double bar
||o - repeat start
o|| - repeat end
*| - double bar (ending)
: - bar (freetime)
$ - Segno
& - Coda
Tempo markers - = BPM(8/16=s8/s16), where s8 = swing 8ths, s16 = swing 16ths


A5 Aadd2 Asus2 B5 B5/F# Bsus4 C#m7 C#sus2 E5 E5/B Emaj7sus2 Esus2 G#m7
variations - click chord images
Transpose chords:
Tuning:
Cool service:
View: Size:
A  A  A
Rating:
Layout:
  • Currently 2.9/5 Stars.
  • 1
  • 2
  • 3
  • 4
  • 5
 
Accuracy:
  • Currently 2.7/5 Stars.
  • 1
  • 2
  • 3
  • 4
  • 5
 
click stars to rate
Chordie recommends:
Learn to play songs at Jamplay.com with video guitar lessons
Songbook:
Login to add this song to your songbook
Support the artist
Preview/buy this song
MSN Music
Why this non-profit ad?

 
login to add comments/video/corrections