Guitar Tabs, Chords and Lyrics


Privilege   Incubus



Song: Privilege
Tuning: Standard (E A D G B E)
Guitar: 6 String Electric
Intro
(clean)

E|-------------------------------------------------------------|
B|------------------------------------------------------77-77--|
G|-------------6-----------------------------------------------|
D|--7--5-------6--7--7-5--4-5---7--5------7--7-5--------44-44--|
A|--7--5-------4--7--7-5--4-5---7--5------7--7-5---------------|
E|--5/-3-xx-------5--5-3--2-3---5/-3-xx---5--5-3---------------|
Post Intro
(distortion)

E|--------------------------------------------------------|
B|-----------------------------------------------77-77-7--|
G|-----------6--------------------------------------------|
D|--7--5-----6--7--7-5--4-5---7--5----7--7------44-44--4--|
A|--7--5-----4--7--7-5--4-5---7--5----7--7----------------|
E|--5/-3--------5--5-3--2-3---5/-3----5--5----------------|
Verse
(distortion)

E|--------------------------------------|
B|--------------------------------------|
G|--------------------------------------|
D|--------------------------------------|
A|--------------------------------------|
E|--5-3---0--5-3----55--3---0--5-3---6--|

Pre Chorus
(distortion)

E|--9999--|
B|--9999--|
G|--------|
D|--------|
A|--------|
E|--------|

Chorus
(distortion)

E|---------------------------------------|
B|---------------------------------------|
G|-----------6---------------7-7-7-55-5--|
D|--7--5-----6--7--7-5--4-5--7-7-7-55-5--|
A|--7--5-----4--7--7-5--4-5--5-5-5-33-3--|
E|--5/-3--------5--5-3--2-3--------------|

Part II

E|-----------------------------------|
B|-----------------------------------|
G|------------6----------------------|
D|---7--5-----6--7--7-5--4-5---3--3--|
A|---7--5-----4--7--7-5--4-5---3--3--|
E|---5/-3--------5--5-3--2-3---1--1--|


Important: The song above is NOT stored on the Chordie server. The original song is hosted at www.xguitar.com. Chordie works as a search engine and provides on-the-fly formatting. Chordie does not index songs against artists'/composers' will. To remove this song please click here.

This song is displayed as text-only. Transposing and tuning is only available for chordpro-songs.

Login - add to songbook

Rating click stars to rate

Layout
Accuracy

SHARE PAGE  




You need to log in to post comments