Guitar Tabs, Chords and Lyrics


Stellar   Incubus



Song: Stellar
Album: Make Yourself
Tuning: Standard (E A D G B E)
Guitar: Paul Reed Smith

This song is tricky, but very repetative. So good luck.
This is really a clean sounding song, so u only need a clean channel on your amp, 
Distortion, and a phaser. So turn your pedals up, and good luck.

-Song progression is:
Intro/verse1 (4 1/2x)
Pre-Chorus (1x)
Chorus (2x)
Post-Chorus (2x)
verse2 (4 1/2x)
Pre-chorus (1x)
Chorus (2x)
pre-breakdown (2x)
Breakdown (2x)
Chorus (2x)
pre-breakdown (1x)
Ending (1x)

Intro/Verse1
-Clean 

|-----------------------------------------|
|-----------------------------------------|
|-------9-/-11-11(b)--6(b)----------------|
|-----9---/-11-11(b)--6(b)-6----6-6---6/7-|
|--0----------------------------4-4-----5-|
|-----------------------------------------|

|-----------------------------------------|
|-----------------------------------------|
|-----9-/-11-11(B)--6(b)-------6-6-----6--|
|---9---/-11-11(b)--6(b)--4-4------7-7----|
|-0---------------------------------------|
|-----------------------------------------|

Pre-Chorus 
-Distortion 

|------------------------------------|
|------------------------------------|
|-7-7-777-7-77-77--4-4-444-4-44-444--|
|-7-7-777-7-77-77--4-4-444-4-44-444--|
|-5-5-555-5-55-55--2-2-222-2-22-222--|
|------------------------------------|

Chorus
-Distortion

|---00----00---------------------|
|---00----00---------------------|
|---22----22---------------------|
|2--22--2-22---------6-6-----6---|
|0--00--0-00-----4-4-----7-7-----|
|--------------------------------|

|--00----00----------------------|
|--00----00----------------------|
|--22----22----------------------|
|2-22--2-22-------6-6---6/7------|
|0-00--0-00---4-4-----5----------|
|--------------------------------|

Post chorus
-Clean w/phaser

|-------------------------------------|
|-------------------------------------|
|------9--/11-11------------9--/6-6---|
|----9----/11-11----------9----/6-6---|
|--0--------------------0-------------|
|-------------------------------------|

Verse2
-Clean

|-----------------------------------------|
|-----------------------------------------|
|-----9-/-11-11(B)--6(b)-------6-6-----6--|
|---9---/-11-11(b)--6(b)--4-4------7-7----|
|-0---------------------------------------|
|-----------------------------------------|

|-----------------------------------------|
|-----------------------------------------|
|-------9-/-11-11(b)--6(b)----------------|
|-----9---/-11-11(b)--6(b)-6----6-6---6/7-|
|--0------------------------4-4-----5-----|
|-----------------------------------------|

Pre-Breakdown
-Distortion

|---0----0-------------------|
|---0----0-------------------|
|---2----2-----6-------------|
|-2-2--2-2-----6--6-----6----|
|-0-0--0-0-----4--6-----6----|
|-----------------4--00-4----|

Breakdown
-Clean w/Phaser

|----------------------------------------|
|----------------------------------------|
|------------------------------------0---|
|-----0--0---------0-0-----------0---0---|
|---7------7-----7-----7-------5-----5---|
|-5----------5-5---------5---3-----3-3---|

|-------------------------------0--|
|-------------------------------0--|
|-------------------------------4--|
|-----2-2--------2-2---------5--5--|
|---2----2-----2-----2-----5----5--|
|-0--------0-0---------0-3------3--|

Ending
-Distortion

|--------------------------------|----------------|
|--------------------------------|----------------|
|--66---------------66-----------|---Let Ring-----|
|--66--66----6/7----66--66---6/7-|--9-->----------|
|--44--66----6/7----44--66---6/7-|--7-->----------|
|------44-0--4/5--------44-0-4/5-|--5-->----------|

Song Structure:
Intro/verse1 (4 1/2x)
Pre-Chorus (1x)
Chorus (2x)
Post-Chorus (2x)
verse2 (4 1/2x)
Pre-chorus (1x)
Chorus (2x)
pre-breakdown (2x)
Breakdown (2x)
Chorus (2x)
pre-breakdown (1x)
Ending (1x)



Important: The song above is NOT stored on the Chordie server. The original song is hosted at www.xguitar.com. Chordie works as a search engine and provides on-the-fly formatting. Chordie does not index songs against artists'/composers' will. To remove this song please click here.

This song is displayed as text-only. Transposing and tuning is only available for chordpro-songs.

Login - add to songbook

Rating click stars to rate

Layout
Accuracy

SHARE PAGE  




You need to log in to post comments