Guitar Tabs, Chords and Lyrics


Have You Ever   Incubus



PROPS GO TO: MATHEW ALIBANGBANG




DROP TUNING:DADGBE

INTRO:
e|--------------------------------------------|
b|--------------------------------------------|
g|--------------------------------------------|
d|-5-5-5-5-5-5-5-5-5-5------------------------|  4X
a|-5-5-5-5-5-5-5-5-5-5------------------------|
d|-5-5-5-5-5-5-5-5-5-5------------------------|

2nd intro
e|--------------------------------------------|
b|--------------------------------------------|
g|--------------------------------------------|
d|-5-5-5-5-5-5-5-5-5-5----55---1-1h3-3/8-8----|
a|-5-5-5-5-5-5-5-5-5-5----55---1-1h3-3/8-8----|
d|-5-5-5-5-5-5-5-5-5-5----55---1-1h3-3/8-8----|

repeat the 2nd intro until when it comes to verse

VERSE:
e|-----------------------------------------|
b|-----------------------------------------|
g|-7-7-7/6-7----4-4-4---3-3----------------|
d|------/-------4-4-4---1-1----------------|
a|-5-5-5/4-5----2-2-2---1-1----------------|
d|-----------------------------------------|

CHORUS:
e|---------------------------------------|
b|---------------------------------------|
g|---------------------------------------|
d|-1h3--3/8--8--0---0--0-----------------|
a|-1h3--3/8--8--0---0--0-----------------|
d|-1h3--3/8--8--0---0--0-----------------|

OURTO:
e|--------------------------------------------|
b|--------------------------------------------|
g|--------------------------------------------|
d|-5-5-5-5-5-5-5-5-5-5----55---1-1h3-3/8-8----|
a|-5-5-5-5-5-5-5-5-5-5----55---1-1h3-3/8-8----|
d|-5-5-5-5-5-5-5-5-5-5----55---1-1h3-3/8-8----|

NOTE:Sorry i don't have the bridge,but if you really want it
just e-mail me at MAT_cyclops15@yahoo.com
and if you have any corrections just e-mail me 2
i will be proud to hear it from u
CHAR!
FROM:MATHEW ALIBANGBANG


Important: The song above is NOT stored on the Chordie server. The original song is hosted at www.xguitar.com. Chordie works as a search engine and provides on-the-fly formatting. Chordie does not index songs against artists/composers will. To remove this song please click here.

This song is displayed as text-only. Transposing and tuning is only available for chordpro-songs.

Login - add to songbook

Rating click stars to rate

Layout
Accuracy

SHARE PAGE  




You need to log in to post comments