Guitar Tabs, Chords and Lyrics


Mexico   Incubus



Author/Artist: Incubus
Title: Mexico
Album: Morning View
Transcribed by: Ben Wonneberger
I tabbed this by ear and from the Morning View Sessions 
*Note-When playing this, hitting the open strings is important

Standard Tuning

-|----0------0------0----0----------------------0---0--|-----0----0----0----0-
-|----0------0------0----0----------------------0---0--|-----8----8----5----5-
-|--------------------------------7-----7--------------|----------------------
-|--9------9------5-----5---------0-----0--------------|---9-----9----5---5---
-|7------7------3-----3----0----8-----8-------3-----3--|-7-----7----3----3----
-|----------------------------6-----6-------1-----1----|----------------------
  Intro/Verse                                           Then                  

---------------------0-----0-|------------------------------------------------
---------------------x-----x-|------------------------------------------------
--------7-----7------2-----2-|------------------------------------------------
--------0-----0--------------|------------------------------------------------
-0----8-----8------3-----3---|------------------------------------------------
----6-----6------1-----1-----|------------------------------------------------
                                                                              

-|--------------------------------------------------------------------|-------
-|---------------------------0----------------------------------------|-------
-|--------0-------00-------0---0---------------0-----00---------------|-------
-|------4---4-----00-----5-------0--99-------4---4---00---77-\--55----|-x2----
-|----2-------0---55---3------------77-----2-------0-55---55-\--33----|-------
-|--0-------------33----------------55---0-----------33---55-\--33----|-------
   Chorus (Just the Chords and Arpeggios used... RHYTHM NOT INDICATED)        

-|------------------------------------|----|-------00---|---------------------
-|--------------00--------------------|----|-------00---|---------------------
-|-------0------xx--------0-----------|----|---66--22---|---------------------
-|-----0---0----77------4---4----55---|-x-3|---xx--xx---|---------------------
-|---5-------0--66----2-------0--33---|----|---44--33---|---------------------
-|-3------------77--0------------33---|----|---55--11---|---------------------


Important: The song above is NOT stored on the Chordie server. The original song is hosted at www.xguitar.com. Chordie works as a search engine and provides on-the-fly formatting. Chordie does not index songs against artists'/composers' will. To remove this song please click here.

This song is displayed as text-only. Transposing and tuning is only available for chordpro-songs.

Login - add to songbook

Rating click stars to rate

Layout
Accuracy

SHARE PAGE  




You need to log in to post comments