Guitar Tabs, Chords and Lyrics


A Certain Shade Of Green   Incubus



 ----------------------------------------------------------------------------------------------

	     SONG: A Certain Shade Of Green
	     BAND: Incubus
	    ALBUM: S.C.I.E.N.C.E.
   TRANSCRIBED BY: Wes Adams (Snwb0rdguy@aol.com)

 ----------------------------------------------------------------------------------------------

	TUNING: standard tuning (E,A,D,G,B,E)

     INTRO: 

    E|------------------------------------------|
    B|------------------------------------------|
    G|--x-x-7-7-7-7--7-7-7-7---8-8-8-8-7-7-7-7--|
    D|--x-x-7-7-7-7--7-7-7-7---8-8-8-8-7-7-7-7--|
    A|--x-x-5-5-5-5--5-5-5-5---6-6-6-6-5-5-5-5--|
    E|--x-x-5-5-5-5--5-5-5-5---6-6-6-6-5-5-5-5--|

    E|--------------------------------------------------|
    B|--------------------------------------------------|
    G|--7--10---8-7---4-4-4-4---4-4-4-4--3---3---3---3--|
    D|--7--10---8-7---4-4-4-4---4-4-4-4--3---3---3---3--|
    A|--5---8---6-5---2-2-2-2---2-2-2-2--1---1---1---1--|
    E|--5---8---6-5---2-2-2-2---2-2-2-2--1---1---1---1--|

     1ST VERSE:

    E|--------------------------6-6-6-6-6-6-6-6--|
    B|--------------------------6-6-6-6-6-6-6-6--|
    G|-----------6-------------------------------|
    D|-----------6---2---------------------------|
    A|-----------4---2---------------------------|
    E|--0---3--------0----------------------------|
      pm......

     CHORUS:

    E|------------------------------------------|
    B|------------------------------------------|
    G|--x-x-7-7-7-7--7-7-7-7---8-8-8-8-7-7-7-7--|
    D|--x-x-7-7-7-7--7-7-7-7---8-8-8-8-7-7-7-7--|
    A|--x-x-5-5-5-5--5-5-5-5---6-6-6-6-5-5-5-5--|
    E|--x-x-5-5-5-5--5-5-5-5---6-6-6-6-5-5-5-5--|

    E|--------------------------------------------------|
    B|--------------------------------------------------|
    G|--7--10---8-7---4-4-4-4---4-4-4-4--3---3---3---3--|
    D|--7--10---8-7---4-4-4-4---4-4-4-4--3---3---3---3--|
    A|--5---8---6-5---2-2-2-2---2-2-2-2--1---1---1---1--|
    E|--5---8---6-5---2-2-2-2---2-2-2-2--1---1---1---1--|

     INTERLUDE:

    E|--12-12-12-12-12-12-12-12-12-12-12-12-12--|
    B|--12-12-12-12-12-12-12-12-12-12-12-12-12--|
    G|--12-12-12-12-12-12-12-12-12-12-12-12-12--|
    D|------------------------------------------|
    A|------------------------------------------|
    E|------------------------------------------|

    E|--0-0-0-0-12-12-12-12-0-0-0-0-12-13-0-0-0-0--|
    B|---------------------------------------------|
    G|---------------------------------------------|
    D|---------------------------------------------|
    A|---------------------------------------------|
    E|---------------------------------------------|

    E|--12-12-12-12-0-0-0-0-5-6--|-------------------|
    B|---------------------------|-------------------|
    G|---------------------------|--3-3-3-3-3-3-3-3--|
    D|---------------------------|--3-3-3-3-3-3-3-3--|
    A|---------------------------|--1-1-1-1-1-1-1-1--|
    E|---------------------------|-------------------|


Important: The song above is NOT stored on the Chordie server. The original song is hosted at www.xguitar.com. Chordie works as a search engine and provides on-the-fly formatting. Chordie does not index songs against artists'/composers' will. To remove this song please click here.

This song is displayed as text-only. Transposing and tuning is only available for chordpro-songs.

Login - add to songbook

Rating click stars to rate

Layout
Accuracy

SHARE PAGE  




You need to log in to post comments