Guitar Tabs, Chords and Lyrics


Calgone   Incubus



 ----------------------------------------------------------------------------------------------

	     SONG: Calgone
	     BAND: Incubus
	    ALBUM: S.C.I.E.N.C.E.
   TRANSCRIBED BY: Wes Adams (Snwb0rdguy@aol.com)

 ----------------------------------------------------------------------------------------------

	TUNING: standard tuning (E,A,D,G,B,E)
     INTRO:

    E|-------------------------------------------------|
    B|-2-------2-------2--------3-------3-------3------|
    G|----2-------2-------2--------3-------3------3----|
    D|-------2-------2-------2--------3-------3-----3--|
    A|-------------------------------------------------|
    E|-------------------------------------------------|

     PRE-CHORUS:

    E|------------------------------------------------|
    B|------------------------------------------------|
    G|-----------5----------------------5-------------|
    D|-2-2-2--4--5--4-4-4-----2-2-2--4--5--4-4-4------|
    A|-2-2-2--4--3--4-4-4-----2-2-2--4--3--4-4-4------|
    E|-0-0-0--2-----2-2-2-----0-0-0--2-----2-2-2------|

     VERSE:
           
     Play this four times
                           
    E|-----------3---------------------3----------------|
    B|-----------3---------------------3----------------|
    G|--x-x-3h4--3--x-x-3h4---x-x-3h4--3--x-x-3h4-------|
    D|----------------------3----------------------3----|
    A|----------------------3----------------------3----|
    E|----------------------1----------------------1----|

     Then play this
       
    E|-------------------------------------------------|
    B|-------------------------------------------------|
    G|---3-----------3-----------3------------3--------|
    D|-------------------------------------------------|
    A|-------------------------------------------------|
    E|-------------------------------------------------|

     CHORUS:      

    E|--------------------------------------------------|
    B|--------------------------------------------------|
    G|--4-4-4---------2-2-2---4-4-4---------------------|
    D|--4-4-4--4-4-4--2-2-2---4-4-4--4-4-4-4------------|
    A|--2-2-2--4-4-4--0-0-0---2-2-2--4-4-4-4------------|
    E|---------2-2-2-----------------2-2-2-2------------|
               pm...                 .......
   



Important: The song above is NOT stored on the Chordie server. The original song is hosted at www.xguitar.com. Chordie works as a search engine and provides on-the-fly formatting. Chordie does not index songs against artists'/composers' will. To remove this song please click here.

This song is displayed as text-only. Transposing and tuning is only available for chordpro-songs.

Login - add to songbook

Rating click stars to rate

Layout
Accuracy

SHARE PAGE  




You need to log in to post comments