Guitar Tabs, Chords and Lyrics


Deep Inside   Incubus



Incubus - Deep Inside
Standard Tuning

This song does a lot of funk/jazz stuff around one chord (xx9777).
I tried to show some of the different little riffs that are played, 
but I'm not good at jazz/funk guitar, so this is all just a guess.
Hopefully you could at least find a good starting point here somewhere.

Verses I: (back and forth between these two riffs)
|----7-----------------------7------------------------------------------|
|----7-----------------------7------------------------------------------|
|----7---9-7----9-9-7-7------7----7---7-7-------------------------------|
|--9----------9------------9----9---9-----------------------------------|
|-----------------------------------------------------------------------|
|-----------------------------------------------------------------------|

Riff Variations: (variations to the main riff above that are thrown in
                  occasionally during the song)
|---------7---7---10-10-10-10-10--------------------7--7----------7--7---|
|-intro:--9---9---9--9--9--9--9---others:-----------10-10---------10-9---|
|---------7---7---7--7--7--7--7-------------9--7----7--7----9-7---7--7---|
|------------------------------------------------9--------------9--------|
|------------------------------------------------------------------------|
|------------------------------------------------------------------------|

|--16-16-16-16----------------------------------------------------------|
|--15-15-15-15----------------------------------------------------------|
|--16-16-16-16----------------------------------------------------------|
|-----------------------------------------------------------------------|
|-----------------------------------------------------------------------|
|-----------------------------------------------------------------------|

Pre-Chorus: (repeated a few times)
|----------------7----7--7------------------------------------------------|
|----------------10---10-10-----------------------------------------------|
|--7-------------7----7--7------------------------------------------------|
|----9--9-9-9-9---------------------------------------------------------|
|-----------------------------------------------------------------------|
|-----------------------------------------------------------------------|

Chorus: (distorted electric part, maybe not really a chorus)
|-----------------------------------------------------------------------|
|-----------------------------------------------------------------------|
|---9---6---2---3-------------------------------------------------------|
|---9---6---2---3-------------------------------------------------------|
|---7---4---0---1-------------------------------------------------------|
|-----------------------------------------------------------------------|

Break Section:
|------------------------------2----------------------------------------|
|---7-7--7---5-5--5---3-3--3---4-----9-9--9---7-7--7---5-5--5-----------|
|---7-7--6---5-5--4---3-3--2---3-----9-9--8---7-7--6---5-5--4-----------|
|------------------------------4----------------------------------------|
|-----------------------------------------------------------------------|
|-----------------------------------------------------------------------|

|-----------------------------------------------------------------------|
|--5-3------------------------------------------------------------------|
|-------4-2----2---4-4-2------------------------------------------------|
|------------4---4------------------------------------------------------|
|-----------------------------------------------------------------------|
|-----------------------------------------------------------------------|

After the Long Solo: (heavy distortion part)
|-----------------------------------------------------------------------|
|-----------------------------------------------------------------------|
|-----------------------10^-----------------8^--------------------------|
|--9-9--9--9--9--9-9-9--7--- repeat, but----7---------------------------|
|--9-9--9--9--9--9-9-9--9---- end on this---9---------------------------|
|--7-7--7--7--7--7-7-7--7----instead   -----7---------------------------|

tabbed by zipztabs.com


Important: The song above is NOT stored on the Chordie server. The original song is hosted at www.xguitar.com. Chordie works as a search engine and provides on-the-fly formatting. Chordie does not index songs against artists'/composers' will. To remove this song please click here.

This song is displayed as text-only. Transposing and tuning is only available for chordpro-songs.

Login - add to songbook

Rating click stars to rate

Layout
Accuracy

SHARE PAGE  




You need to log in to post comments