Guitar Tabs, Chords and Lyrics


Idiot Box   Incubus



 ----------------------------------------------------------------------------------------------

	     SONG: Idiot Box
	     BAND: Incubus
	    ALBUM: S.C.I.E.N.C.E.
   TRANSCRIBED BY: Wes Adams (Snwb0rdguy@aol.com)

 ----------------------------------------------------------------------------------------------

	TUNING: standard tuning (E,A,D,G,B,E)
     INTRO/CHORUS:
   
    E|----------------------------------------------------|
    B|----------------------------------------------------|
    G|--7-------8--5---7-7----8--5-x-5---5-5--3--6----6---|
    D|--7-------8--5---7-7----8--5-x-7---7-7--5--8----8---|
    A|--5-------6--3---5-5----6--3-x-7---7-7--5--8----8---|
    E|--5-------6--3---5-5----6--3-x-5---5-5--3--6----6---|

     VERSE:

    E|--14-------7--------4--------------2--------|
    B|--13-------6--------3----------------1------|
    G|--14-------7--------4----------2-------2----|
    D|---------------------------0-4---4----------|
    A|--------------------------------------------|
    E|--------------------------------------------|

     FILL 1: (I think this is played during the second chorus)

    E|------------------------------------------------------|
    B|------------------------------------------------------|
    G|------------------------------------------------------|
    D|--4-4---4-4-4--4-4-4-2-4-2-4-4--4-4--4-4-4-4-4--4-4---|
    A|--4-4---4-4-4--4-4-4-2-4-2-4-4--4-4--4-4-4-4-4--4-4---|
    E|--2-2---2-2-2--2-2-2-0-2-0-2-2--2-2--2-2-2-2-2--2-2---|


Important: The song above is NOT stored on the Chordie server. The original song is hosted at www.xguitar.com. Chordie works as a search engine and provides on-the-fly formatting. Chordie does not index songs against artists'/composers' will. To remove this song please click here.

This song is displayed as text-only. Transposing and tuning is only available for chordpro-songs.

Login - add to songbook

Rating click stars to rate

Layout
Accuracy

SHARE PAGE  




You need to log in to post comments