Guitar Tabs, Chords and Lyrics


New Skin   Incubus



 ----------------------------------------------------------------------------------------------

	     SONG: New Skin
	     BAND: Incubus
	    ALBUM: S.C.I.E.N.C.E.
   TRANSCRIBED BY: Nick Biondo (metlslp@hotmail.com)

 ----------------------------------------------------------------------------------------------

	TUNING: standard (E-A-D-G-B-E)
     INTRO:

    E|-----------------------------------------------|
    B|-----------------------------------------------|
    G|-----------------------------------------------|
    D|----9-9--------9-9---9-9--------------9-9------|
    A|----9-9--------9-9---9-9--------------9-9------|
    E|----7-7--------7-7---7-7--------------7-7------|

     MAIN RIFF:

    E|-----------------------------------------------|
    B|-----------------------------------------------|
    G|------------------------------------7-7-7------|
    D|----7/9-9-9-x--3-3-3----7/9-9-9-x---7-7-7------|
    A|----7/9-9-9-x--3-3-3----7/9-9-9-x---5-5-5------|
    E|----5/7-7-7-x--1-1-1----5/7-7-7-x--------------|

     VERSE:

    E|-----------------------------------------------|
    B|--------12----------13--------13-15-15---------|
    G|--11-11----11-11-12----12--12------------------|
    D|-----------------------------------------------|
    A|-----------------------------------------------|
    E|-----------------------------------------------|

     PRE-CHORUS:

    E|---------------------|
    B|---------------------|
    G|--4-4-4-4-----5-5----|
    D|--4-4-4-4--3--5-5----|
    A|--2-2-2-2--3--3-3----|
    E|-----------1---------|

     CHORUS:

    E|-----------------------------------------------|
    B|-----------------------------------------------|
    G|----------9---9-9-------------10-10-10---------|
    D|--7--7-7--9---9-9--10-10-10---10-10-10---------|
    A|--7--7-7--7---7-7--10-10-10----8--8--8---------|
    E|--5--5-5------------8--8--8--------------------|



Important: The song above is NOT stored on the Chordie server. The original song is hosted at www.xguitar.com. Chordie works as a search engine and provides on-the-fly formatting. Chordie does not index songs against artists'/composers' will. To remove this song please click here.

This song is displayed as text-only. Transposing and tuning is only available for chordpro-songs.

Login - add to songbook

Rating click stars to rate

Layout
Accuracy

SHARE PAGE  




You need to log in to post comments