Guitar Tabs, Chords and Lyrics


Summer Romance (Anti-Gravity Love Song)   Incubus



          Song: summer romance
          Artist: incubus
          tabbed by bret (gibsonstudio6@aol.com)
          
          intro:
          E:--------------------       --------
          B:--------------------       --------
          G:--------------------       --------
          D:--------------------  then --------
          A:2-5-2-0-0-2---------       --------
          E:------------2-2-5-5-       3-3-5-5-
          
          post intro:
          E:7-10p7------------------------------
          B:-------9----------------------------
          G:---------7h9------7---9----7/9--7-7-
          D:--------------7/6---6---6-----------
          A:------------------------------------
          E:------------------------------------
          
          verse:
          E:7---10/12/14/-12/9/14/7-
          B:7-----------------------
          G:7---7/9/11/----9/6/11/4-
          D:7-----------------------
          A:9-----------------------
          E:7-----------------------
          the last chord is strummed also
          
          chorus: part a
          E:--7-------5------------------7-------3-
          B:--8-------7--------8---------7-------3-
          G:--7-------6--------6---------7-------4-
          D:--9-------7--------8---------7-------4-
          A:--7-------5--------7---------9-------5-
          E:-------------------6---------7-------3-
                    
          part b:
          E:--3-------2- 
          B:--3-------2-
          G:--4-------3- 
          D:--4-------4-
          A:--5-------4-
          E:--3-------2-
          


======================================================================

          song:Summer Romance
          artist:incubus
          tabbed by Bret (incuscience10@aol.com)
          intro:
          A:-2-5--2--0-0-2-------|---2-5--2--0-0-2-------
          E:---------------2-2-5-|-----------------3-3-5-
          intro part b:this is played once throught the song.
          E-7-10-7-----------------------------
          B:--------9--------------------------
          G:----------9-7----------7---7/9-7-7-
          D:--------------9-7--6-9---9---------
          
          verse:
          E:--7-----10-/-12-/-14-\-12-\-10-/-12-\-10-\-7-
          B:--7------------------------------------------
          G:--7-----7--/ 9--/ 11-\ 9--\ 7- / 11-\ 7--\ 4- 
          D:--7------------------------------------------ 
          A:--9------------------------------------------ 
          E:--7------------------------------------------
          
          chorus: part a
          E:--7-------5------------------7-------3-
          B:--8-------7--------8---------7-------3-
          G:--7-------6--------6---------7-------4-
          D:--9-------7--------8---------7-------4-
          A:--7-------5--------7---------9-------5-
          E:-------------------6---------7-------3-
          
          part b:
          E:--3-------2- 
          B:--3-------2-
          G:--4-------3- 
          D:--4-------4-
          A:--5-------4-
          E:--3-------2-



Important: The song above is NOT stored on the Chordie server. The original song is hosted at www.xguitar.com. Chordie works as a search engine and provides on-the-fly formatting. Chordie does not index songs against artists'/composers' will. To remove this song please click here.

This song is displayed as text-only. Transposing and tuning is only available for chordpro-songs.

Login - add to songbook

Rating click stars to rate

Layout
Accuracy

SHARE PAGE  




You need to log in to post comments