Guitar Tabs, Chords and Lyrics


Vitamin   Incubus



 ----------------------------------------------------------------------------------------------

	     SONG: Vitamin
	     BAND: Incubus
	    ALBUM: S.C.I.E.N.C.E.
   TRANSCRIBED BY: Wes Adams (Snwb0rdguy@aol.com)

 ----------------------------------------------------------------------------------------------

	TUNING: standard tuning (E,A,D,G,B,E)

     INTRO/VERSE:

    E|------------------------------------|
    B|------------------------------------|
    G|------------------------------------|
    D|--2-2--------------2-2--------------|
    A|----------3h5--------------3h5------|
    E|------0-0-----0-0------0-0-----0-0--|

     PRE-CHORUS:

    E|----------------------------------------12-12-12-12-12-12--|
    B|----------------------------------------12-12-12-12-12-12--|
    G|----------------------------------------12-12-12-12-12-12--|
    D|--2-2---------------2-2------------------------------------|
    A|----------3h5---------------3h5----------------------------|
    E|------0-0-----0-0-0-----0-0-----0-0-0----------------------|

     CHORUS:

    E|------------------------------------------|
    B|------------------------------------------|
    G|--9-9-----5-7-------7-7-------4-4---------|
    D|--9-9-----5-7--5-5--7-7--3-3--4-4--2-2-2--|
    A|--7-7-----3-5--5-5--5-5--3-3--2-2--2-2-2--|
    E|------0-0------3-3-------1-1-------0-0-0--|

     OUTRO: (with wah effect)

    E|-----------------------------------------------|
    B|-----------------------------------------------|
    G|-----------------------------------------------|
    D|-----------------------------------------------|
    A|--7--7-------------------7--7------------------|
    E|--------8--7-----3-3-3---------8--7-----3-3-3--|



Important: The song above is NOT stored on the Chordie server. The original song is hosted at www.xguitar.com. Chordie works as a search engine and provides on-the-fly formatting. Chordie does not index songs against artists'/composers' will. To remove this song please click here.

This song is displayed as text-only. Transposing and tuning is only available for chordpro-songs.

Login - add to songbook

Rating click stars to rate

Layout
Accuracy

SHARE PAGE  




You need to log in to post comments