Fill It Up Again

Indigo Girls

 FCEAm
e|-------------------------------------------------|
B|----1---1----1--1-0-0-------0-0--1---------------|
G|----0h2-0--0-0--0-1-1--1-2/4-----2-------0-------|
D|--3--------0-2--0-0--------------2--2-0h2--2p0---|
A|------------------2------------0---------------3-|
E|------------------0------------------------------|


 FCEAm
e|-------------------------------------------------|
B|----1---1----1--1-0-0-------0-0--1---------------|
G|----0h2-0--0-0--0-1-1--1-2/4-----2-------0-------|
D|--3--------0-2--0-0--------------2--2-0h2--2p0---|
A|------------------2------------0---------------3-|
E|------------------0------------------------------|


 FCGAm
e|---------------------------------------------------------|
B|--------------------------------------1------------------|
G|------2-2-0-0-0-0-0-0-0-0-------------2--------0---------|
D|------3-3-2-0-2-0-2-0-0-0---------0---2--2-0h2---2p0-----|
A|------3-3-3-3-3-3-3-3-2---------3---0----------------3---|
E|--1-1-----------------3---0-3/5--------------------------|


 FCGAm
e|---------------------------------------------------------|
B|--------------------------------------1-1-1-1------------|
G|------2-2-0-0-0-0-0-0-0-0-------------2-2-2-0------------|
D|------3-3-2-0-2-0-2-0-0-0---------0---2-2-2-0------------|
A|------3-3-3-3-3-3-3-3-2---------3---0---0-0-0------------|
E|--1-1-----------------3---0-3/5--------------------------|


VERSE:

 FC
 wont have to see me as your sad sack

 GAm
 lost my something and i cant get it back

 FEm
 or a kill on your trophy rack

 AmD/G
 i checked my schedule now my train is rolling down a track

 FC
 passed the sadness of the salt flats

 GAm
 to the prospect of the land fat

 FEm
 or just a lazy orange house cat

 AmD/G
 on the sofa where i'll be put up

CHORUS:

 FC
 You've been the hole in my sky

 EAm
 my shrinking water supply

 FE
 before my well runs dry

 AmAm/GAm/DF
 i'm going round round round the bend 

 G
e|--------------3-----|
B|--------------3-----|
G|-----0--------0-----|
D|-0h2---2p0----0-----|
A|-----------3--2-----|
E|--------------3-----|

...fill it up again

FILL:

 FCGAm
e|---------------------------------------------------------|
B|--------------------------------------1------------------|
G|------2-2-0-0-0-0-0-0-0-0-------------2--------0---------|
D|------3-3-2-0-2-0-2-0-0-0---------0---2--2-0h2---2p0-----|
A|------3-3-3-3-3-3-3-3-2---------3---0----------------3---|
E|--1-1-----------------3---0-3/5--------------------------|


VERSE: (same)
I'd like the say that it was clear to me
love triangle geometry
but in the end its still a mystery
the placement of affection and the disarray

I gathered up the courage that it took
made that bed and took one last look
but you could hear the pages flapping in the wind blown book of my days
my days

CHORUS:

 FC
 You've been the hole in my sky

 EAm
 my shrinking water supply

 FE
 before my well runs dry

 AmAm/GAm/DF
 i'm going round round round the bend 

 G
e|--------------3-----|
B|--------------3-----|
G|-----0--------0-----|
D|-0h2---2p0----0-----|
A|-----------3--2-----|
E|--------------3-----|

...fill it up again

MIDDLE:

 D/GFC
 one tank gone, second thoughts are on my mind

 D/GFC
 like what's this trip gonna cost me this time

 D/GFC
 the devil i know is starting to look awefully kind

 AmAm/GAm/DF
but the new road is an old friend  

 G
e|--------------3-----|
B|--------------3-----|
G|-----0--------0-----|
D|-0h2---2p0----0-----|
A|-----------3--2-----|
E|--------------3-----|

...fill it up again

FILL:

 FCGAm
e|---------------------------------------------------------|
B|--------------------------------------1------------------|
G|------2-2-0-0-0-0-0-0-0-0-------------2--------0---------|
D|------3-3-2-0-2-0-2-0-0-0---------0---2--2-0h2---2p0-----|
A|------3-3-3-3-3-3-3-3-2---------3---0----------------3---|
E|--1-1-----------------3---0-3/5--------------------------|


Hole in my sky.... my sky ..... my sky.....

CHORUS:

 FC
 You've been the hole in my sky

 EAm
 my shrinking water supply

 FE
 before my well runs dry

 AmAm/GAm/DF
 i'm going round round round the bend 

 G
e|--------------3-----|
B|--------------3-----|
G|-----0--------0-----|
D|-0h2---2p0----0-----|
A|-----------3--2-----|
E|--------------3-----|

...fill it up again

OUTRO:

 FCEAm
e|-------------------------------------------------|
B|----1---1----1--1-0-0-------0-0--1---------------|
G|----0h2-0--0-0--0-1-1--1-2/4-----2-------0-------|
D|--3--------0-2--0-0--------------2--2-0h2--2p0---|
A|------------------2------------0---------------3-|
E|------------------0------------------------------|


 FCEC
e|---------------------------------0--------------|
B|----1---1----1--1-0-0-------0-0--1--------------|
G|----0h2-0--0-0--0-1-1--1-2/4-----0--------------|
D|--3--------0-2--0-0--------------2--------------|
A|------------------2------------0-3--------------|
E|------------------0--------------x--------------|


castmenotaway@hotmail.com


Am Am/D C D/G E Em F G
variations - click chord images
Transpose chords:
Tuning:
Cool service:
View: Size:
A  A  A
Rating:
Layout:
  • Currently 3.3/5 Stars.
  • 1
  • 2
  • 3
  • 4
  • 5
 
Accuracy:
  • Currently 3.3/5 Stars.
  • 1
  • 2
  • 3
  • 4
  • 5
 
click stars to rate
Chordie recommends:
Get acoustic guitar lessons and electric guitar lessons at JamPlay.com
Songbook:
Login to add this song to your songbook
Support the artist
Preview/buy this song
MSN Music
Why this non-profit ad?

 
login to add comments/video/corrections