Guitar Tabs, Chords and Lyrics


Natural    Inme



Inme - Natural
Submitted By: Ithshroom
EMail: evilconspiracy@hotmail.com


All credit on this tab goes to InMe, its a great song.
Tabbed by Ithshroom, evilconspiracy@hotmail.com.

Drop D tuning

Key:
PM - Palm muting
b - Bend string
r - Release bend

Intro/Chorus
E|------------------------------------------|
B|------------------------------------------|
G|------------------------------------------|
D|77777777-3333---------5555555555555-------|
A|77777777-3333-b55555r-5555555555555-777666|
D|77777777-3333---------5555555555555-777666|
                ^Start bending, then pick the notes fast gradually bending the string

E|-------------------------------------||
B|-------------------------------------||
G|-------------------------------------||
D|-7777-7-3333-3-33-5555-5-------------||
A|-7777-7-3333-3-33-5555-5-------------||
D|-7777-7-3333-3-33-5555-5-------------||
PM______________________

E|-------------------------------------||
B|-------------------------------------||
G|-------------------------------------||
D|-5555-7777-5555-7777-----------------||
A|-5555-7777-5555-7777-----------------||
D|-5555-7777-5555-7777-----------------||
PM ____________________

E|-------------------------------------||
B|-------------------------------------||
G|-------------------------------------||
D|-7777-7-3333-3-33-5555-5-------------||
A|-7777-7-3333-3-33-5555-5-------------||
D|-7777-7-3333-3-33-5555-5-------------||
PM _______________________

E|-------------------------------------||
B|-------------------------------------||
G|-------------------------------------||
D|-------------------------------------||
A|-5555-7777-5555-7766-----------------||
D|-------------------------------------|| x2

Bridge
E|------------||
B|------------||
G|-----0------||
D|---1--------||
A|-1----------||
D|------------||

Interlude 1
E|-------------------------------------||
B|-------------------------------------||
G|-------------------------------------||
D|-7777--5555--3333--3333-33-33--------||
A|-7777--5555--3333--3333-33-33--------||
D|-7777--5555--3333--3333-33-33--------||
                        PM_____

Interlude 2
Something like this is played a few times but its hard to hear
E|-------------------------------------||
B|---------------------12--------------||
G|--14-14-14-14-14-14-----14-----------||
D|-------------------------------------||
A|-------------------------------------||
D|-------------------------------------||

After that part a few times you hear this
(This part is optional as you can hardly hear it, or this whole interlude)
E|-------------------------------------||
B|-------------------------------------||
G|b12-12-12-12-12-12r------------------||
D|-------------------------------------||
A|-------------------------------------||
D|-------------------------------------||
  ^Start bend      ^ Release bend, while the notes are being played gradualy bend the string.

Around were this is played Dave is singing
"You know why, you know why, you know why, you knoooow!"

Order
Intro/Chorus
Verse
Bridge
Chorus
Verse
Bridge
Chorus
Interlude 1
Bridge
Chorus
Interlude 2



Important: The song above is NOT stored on the Chordie server. The original song is hosted at www.xguitar.com. Chordie works as a search engine and provides on-the-fly formatting. Chordie does not index songs against artists'/composers' will. To remove this song please click here.

This song is displayed as text-only. Transposing and tuning is only available for chordpro-songs.

Login - add to songbook

Rating click stars to rate

Layout
Accuracy

SHARE PAGE  




You need to log in to post comments