Guitar Tabs, Chords and Lyrics


Assassins   Insane Clown Posse



this song is ***ing badass and fun 2 play
Intro
e ---------------|---------------
b ---------------|---------------
g ---6--8--------|---------------
d ---6--8-(x4)---|-666666666666--
a ---4--6--------|-444444444444--
e ---------------|---------------

Verse
e ----------------------------------------------------------
b ----------------------------------------------------------
g -----------------------------------------------------6--8-
d --44444444333333332222222211111111-------------------6--8-
a -----------------------------------------------------4--6-
e ----------------------------------------------------------

Chorus Palm Muted
e ---------------------------------
b ---------------------------------
g ----------------------------6--8-
d --555-444-555-444-----------6--8-
a --555-444-555-444-----------4--6-
e --333-222-333-222----------------

Ending Riff
e ---------------
b ---------------
g ---------------
d --5-4-5-4------
a --5-4-5-4------
e --3-2-3-2------



Important: The song above is NOT stored on the Chordie server. The original song is hosted at www.xguitar.com. Chordie works as a search engine and provides on-the-fly formatting. Chordie does not index songs against artists'/composers' will. To remove this song please click here.

This song is displayed as text-only. Transposing and tuning is only available for chordpro-songs.

Login - add to songbook

Rating click stars to rate

Layout
Accuracy

SHARE PAGE  




You need to log in to post comments