Chordie logo


Gangland   Iron Maiden









   Intro
-||---------------------0--------|--------------------0--------|--------------
-||*-----------------------------|-----------------------------|--6-----------
-||--7-5---------------------5---|5-5----------------------5---|5-5-----------
-||--7-5-------------------------|5-4--------------------------|4-3-----------
-||*-----------------------------|-----------------------------|--------------
-||------------------------------|-----------------------------|--------------
 
                                          Verse Rhythm 1.
-------0------|-------------------------||------------------------------------
-----------1--|------------------------*||------------------------------------
--------------|-------------------------||------------------------------------
--------------|5--7---------------------||------------------------------------
--------------|5--7--------------------*||5h7-----------------5h7-------------
--------------|3--5---------------------||----0-0-0-0-0-0-0-0-----0-0-0-0-0-0-
                                          Sha-dows     may hide you but also  
                                              |--------------|    |-----------
------------------------------------------------------------------------------
------------------------------------------------------------------------------
------------------------------------------------------------------------------
------12----------------------------------------------------------12------7---
------10-12-------------5h7------------------5h7------------------10-12-7-5-7-
-0-0-----10--0-0-0-0-0------0-0-0-0-0-0-0-0------0-0-0-0-0-0-0-0-----10-5---5-
 be your grave.          Your run-ning to-day may be tomorrow you'll saved    
 ---|        |--------|     |--------------|     |--------------|                               
------------------------------------------------------------------------------
------------------------------------------------------------------------------
------------------------------------------------------------------------------
------------------------------------------12----------------------------------
-5h7------------------5h7-----------------10-12-------------5h7---------------
-----0-0-0-0-0-0-0-0------0-0-0-0-0-0-0-0----10--0-0-0-0-0------0-0-0-0-0-0-0-
 Your praying for the daylight to save you for a while       you wonder if    
     |--------------|     |--------------|       |--------|     |------------                                            
----------------------------------------------||------------------------------
----------------------------------------------||------------------------------
----------------------------------------------||------------------------------
-----------------------12---------------------||------------------------------
---5h7-----------------10-12-9----------------||-12--10-------------10--12-7--
-0-----0-0-0-0-0-0-0-0----10-7----------------||-10--8--------------8---10-5--
 your children will face the killes smileb       Dead men          tell no    
 -|    |--------------|                           (chorus)
------------------------------------------------------------------------------
------------------------------------------------------------------------------
------------------------------------------------------------------------------
------------------------------------------------------------------------------
----------5h7p5-----12----10--------------10--------12-7-------5h-7p5---------
--------5-------5---10----8---------------8---------10-5-----5--------5-------
 tales              gangland           murders  up for sale                   

------------------------------------------------------------------------------
------------------------------------------------------------------------------
------------------------------------------------------------------------------
------------------------------------------------------------------------------
-5h7p5--12----10-----------10--12-7--------5h7p5-----12----10----10-----------
--------10----8------------8---10-5------5-------5---10----8-----8------------
        Dead men          tell no  tales           in gangland where the      
       (end chorus)
-------------------||------------------------------------------------------||-
-------------------||------------------------------------------------------||-
-------------------||------------------------------------------------------||-
-------------------||------------------------------------------------------||-
-------12----7-----||------------------------------------------------------||-
-------10----5-----||------------------------------------------------------||-
 jail birds die                     Repeat Verse Rhythm 1.                    
   (Bridge)
-||--0------------------|--------------|---------------------|----------------
-||--0------------------|--------------|---------------------|----------------
-||--9------------------|-5------------|---------------------|-----7-5-4------
-||--9------------------|-5------------|7--------------------|5----7-5-4------
-||--7------------------|-3------------|5--------------------|5---------------
-||--0------------------|-3------------|---------------------|3---------------
          Once you were glad   to be free__      for a while____              

-|----------------|--------------------|--------------------------------|-----
-|----------------|--------------------|--------------------------------|-----
-|5---------------|--------------------|--------------------------------|-----
-|5---------------|--------------------|4-------------------------------|4-5--
-|3---------------|4-------------------|2-------------------------------|2-3--
-|----------------|2-------------------|--------------------------------|-----
    The air tasted good      and the world        was  your  friend.________  

----------|0------------------|-----------------|-------------------|---------
----------|0------------------|-----------------|-------------------|---------
----------|9------------------|5----------------|-------------------|----7-5--
-6-7-8-9--|9------------------|5----------------|7------------------|5---7-5--
-4-5-6-7--|7------------------|3----------------|5------------------|5--------
----------|0------------------|3----------------|-------------------|3--------
                Then came the day   when the hard__     times began____       
                                                     (end bridge)
----|------------|-------------------------------|---------------||-----------
----|------------|-------------------------------|---------------||-----------
-4--|5-----------|-------------------------------|---------------||-----------
-4--|5-----------|-------------------4--5-6-7-8-9|9-10-11-12-13--||-----------
----|3-----------|4------------------2--3-4-5-6-7|7-8--9--10-12--||-----------
----|------------|2------------------------------|---------------||-----------
       Now your alone   but alive            for how long?                    
                    (Interlude)
------------------||----------------------------------------------------------
------------------||*---------------------------------------------------------
------------------||------9-------9------9------9----3-7---3-7---3-7---3-7----
------------------||-7-10----7-10---7-10---7-10----5-----5-----5-----5------3-
------------------||*---------------------------------------------------------
------------------||----------------------------------------------------------
 Repeat Chorus       |--------------------------------------------------------                                                         

------------------------------------------------------------------------------
------------------------------------------------------------------------------
---5-----5-----5---6-5--------------------------------------------------------
-6---3-6---3-6---3--------5-9---5-9---5-9---5-9----3-7---3-7---3-7---3-7------
------------------------7-----7-----7-----7------5-----5-----5-----5----------
------------------------------------------------------------------------------
------------------------------------------------------------------------------                                                                             
                                        (end interlude)     (solo rhythm)
----------------------------------------------------------||------------------
---------------------------------------------------------*||*-----------------
----------------------------------------------------------||------------------
-----5-----5-----5-----5--2---------3-2-0-2------3-2--5-4-||------------------
-3-6---3-6---3-6---3-6----2---------2-2-0-2------2-2--3-2*||*-5/7-------------
--------------------------0-------------------------------||--3/5-5-5-5-5-5-5-
------------------------|                                         |----------

------------------------------------------------------------------------------
------------------------------------------------------------------------------
-----------------------------------5-7b---------------------------------------
-----------------------------------5-7b---------------------------------------
-5/7--------------5/7---------------------5/7--------------5/7----------------
-3/5-5-5-5-5-5-5--3/5-5-5-5-5-5-5---------3/5-5-5-5-5-5-5--3/5-5-5-5-5-5-5----
     |----------|     |----------|            |----------|     |----------|                                                                         
              (end solo)
-------------------------||------------------------------------------------||-
------------------------*||------------------------------------------------||-
--------------------5----||------------------------------------------------||-
------------------7-7----||------------------------------------------------||-
-5/7--------------5-5---*||------------------------------------------------||-
-3/5-5-5-5-5-5-5---------||------------------------------------------------||-
     |----------|                 Repeat Verse Rhythm 1. 

-||------------------||----------------------------------------------------||-
-||------------------||*--------------------------------------------------*||-
-||------------------||----------------------------------------------------||-
-||------------------||----9------7----------------------7----9------------||-
-||------------------||*---7------5----------------------5----7----9------*||-
-||------------------||--------------------------------------------7-------||-
     Repeat Chorus        Dead   men                            Play 3 times  

---------------------------------------------------||-------------------------
---------------------------------------------------||-------------------------
---------------------------------------------------||-------------------------
---9-----7--------------------9-------7--------9---||-------------------------
---7-----5--------------------7-------5--------7---||-------------------------
-----------------------------------------------0---||-------------------------
 Dead   men                  tell    no       tales.                          



Important: The song above is NOT stored on the Chordie server. The original song is hosted at www.xguitar.com. Chordie works as a search engine and provides on-the-fly formatting. Chordie does not index songs against artists/composers will. To remove this song please click here.

This song is displayed as text-only. Transposing and tuning is only available for chordpro-songs.

Login - add to songbook

Rating click stars to rate

Layout
Accuracy

SHARE PAGE  




You need to log in to post comments