Guitar Tabs, Chords and Lyrics


A Threnody for Modern Romance    It Dies Today



Key
h - hammer on
p - pull off
. - palm mute

Intro - Guitar 1+2 - 2x
D---------------------------------------------------------------------------------------------------
A---------------------------------------------------------------------------------------------------
F-------------------------------------------------------------3-------------------------------------
C-000-000-000-000-0-0-0-5-3-2-0----000-000-000-000-0-0-0-5-3-2------000-000-000-000-0-0-0-5-3-2-0---
G-000-000-000-000-0-0-0--------3---000-000-000-000-0-0-0---------3--000-000-000-000-0-0-0---------3-
C-000-000-000-000-0-0-0------------000-000-000-000-0-0-0------------000-000-000-000-0-0-0-----------
  ... ... ... ... . . .            ... ... ... ... . . .            ... ... ... ... . . .
-------------------|
-------------------|
-------------------|
-55-33-88-10101010-|
-55-33-88-10101010-|
-55-33-88-10101010-|

Verse - Guitar 1+2 - 2x
D------------------------------------------------------------------------------------------|
A------------------------------------------------------------------------------------------|
F---------------------------------------------------------10101010101010101414141412121212-|
C-00---------5-3-2-3-3-55555-33-5555-00---------5-3-2-3-3-x x x x x x x x x x x x x x x x -|
G-00-0-5p3p2-----------55555-33-3333-00-0-5p3p2-----------8 8 8 8 8 8 8 8 1212121210101010-|
C-00-0-----------------55555-33------00-0--------------------------------------------------|
  ..                                 ..

Chorus - Guitar 1+2 - 1x
D--------------------------------------------------------------------------------------------------------------
A--------------------------------------------------------------------------------------------------------------
F----10-12-10-9-----------------------------10-12-10-9----------------------------10-9-------------------------
G-00-----------12-33-55-55-77-88-101010-00-----------12-33-55-11111-0-0-555-00-0------12-33-55-55-77-88-101010-
G-00--------------33-33-55-55-88-8 8 8--00--------------33-33-11111-0-0-333-00-0---------33-33-55-55-88-8 8 8 -
C-00--------------33-33-55-55-88-8 8 8--00--------------33-33-11111-0-0-----00-0---------33-33-55-55-88-8 8 8 -
  ..                                    ..                                  ..
----------------------------------------------------------------------------------------------|
----------------------------------------------------------------------------------------------|
----------------------------------------------------------------------------------------------|
-1111111111111111-000-000-000-000-000-000-000-000-------------------------------------0-------|
-1111111111111111-000-000-000-000-000-000-000-000-and then on to more patterns of the-0-chord-|
-1111111111111111-000-000-000-000-000-000-000-000-------------------------------------0-------|
                  ... ... ... ... ... ... ... ...                                     .

this riff is somewhere in there (you might not recognize it
D---------------------------------|now but try playing it
A---------------------------------|and youll know) then it goes into verse
F---------------------------------|
C-------3-------2-------5-------2-|
G-2-3-5---2-3-5---2-3-5---2-3-5---|
C---------------------------------|
  . . .   . . .   . . .   . . .

The backing guitar of the solo seemed a little off on the other tab so heres this, i did it by
D---------------------------------------------------------------memory so you may have to change it
A---------------------------------------------------------------a little.
F-------------------------------------------------------------------
C-77777-5-33333-555555-------5-3-77777-5-33333-3333333333333333-----
G-55555-3-11111-333333-5p3p2-----55555-3-11111-3333333333333333-----
C----------------------------------------------3333333333333333-----
                                                        .......

sorry about the solo i tried it but the backing part was too loud


Important: The song above is NOT stored on the Chordie server. The original song is hosted at www.xguitar.com. Chordie works as a search engine and provides on-the-fly formatting. Chordie does not index songs against artists'/composers' will. To remove this song please click here.

This song is displayed as text-only. Transposing and tuning is only available for chordpro-songs.

Login - add to songbook

Rating click stars to rate

Layout
Accuracy

SHARE PAGE  




You need to log in to post comments