Guitar Tabs, Chords and Lyrics


The Caitiff Choir: Defeatism    It Dies Today



It Dies Today - The Caitiff Choir: Defeatism

Tuning: Drop C (CGCFAD)

Questions, complains, insults? xboddahx@hotmail.com

* - palm mute
X - mute
h - hammer on
/ - Slide
X// - pick scratch

Guitar 1   Fades in
|---------------------------------|
|---------------------------------|
|-7-7-7-9-9-9-10-10-9-9-9-7-7-9-9-|
|-7-7-7-9-9-9-10-10-9-9-9-7-7-9-9-|
|-5-5-5-7-7-7-8-8-8-7-7-7-5-5-7-7-|
|---------------------------------|

Guitar 1   Repeat 3x
|---------------------------------|
|---------------------------------|
|-7-7-7-9-9-9-10-10-9-9-9-7-7-9-9-|
|-7-7-7-9-9-9-10-10-9-9-9-7-7-9-9-|
|-5-5-5-7-7-7-8-8-8-7-7-7-5-5-7-7-|
|---------------------------------|

|---------------------------------|
|---------------------------------|
|-7-7-7-9-9-9-10-10-9-9-9-7-7-9-9-|
|-7-7-7-9-9-9-10-10-9-9-9-7-7-9-9-|
|-5-5-5-7-7-7-8-8-8-7-7-7-5-5-7-7-|
|---------------------------------|

|----------------------------------|
|----------------------------------|
|-7-7-9-7-9-7-7-7-9-7-9-7--9-7-9-7-|
|-7-7-9-7-9-7-7-7-9-7-9-7--9-7-9-7-|
|-5-5-7-5-7-5-5-5-7-5-7-5--7-5-7-5-|
|----------------------------------|

|----------------------------------|
|----------------------------------|
|-7-7-9-7-9-7-7-7-9-7-9-7--9-7-9-7-|
|-x-x-x-x-x-x-x-x-x-x-x-x--x-x-x-x-|
|-5-5-7-5-7-5-5-5-7-5-7-5--7-5-7-5-|
|----------------------------------|

Guitar 2 Repeat 8x
|-------------------------------------|
|-------------------------------------|
|-------------------------------------|
|-------------------------------------|
|-0-0--0-0-0-0--0-0--0-0-0-0-0-0--0-0-|
|-0-0--0-0-0-0--0-0--0-0-0-0-0-0--0-0-|
  * *  * * * *  * *  * * * * * *  * *

Let notes ring
|-------------------------------------|
|-------------------------------------|
|-------------------------------------|
|-0-------------3------------5--------|
|-0-------------3------------5--------|
|-0-------------3------------5--------|

Both Guitars  Fill 1
|-----------------|
|-----------------|
|-----------------|
|-8p7-----7p5-----|
|-----8p7-----7p5-|
|-----------------|

Both Guitars  Riff 1
|-------------------------------------------------------------|
|-------------------------------------------------------------|
|-------------------------------------------------------------|
|-------------------------------------7p5---------7p5-----7p5-|
|-0---1---0-7/8-----5h7---------------------------------------|
|-0-0-1-0-0-----0-0-----0-0-0-3-3-3-3-----5-5-5-5-----7-7-----|
    *   *       * *     * * * * * * *     * * * *     * *
|-------------------------------------------------------------|
|-------------------------------------------------------------|
|-------------------------------------------------------------|
|-------------------------------------7p5---------7p5---------|
|-0---1---0-7/8-----5h7-----------------------------------7h8-|
|-0-0-1-0-0-----0-0-----0-0-0-3-3-3-3-----5-5-5-5-----7-7-----|
    *   *       * *     * * * * * * *     * * * *     * *

Guitar 1  Riff 1
|-------------------------------------------------------------|
|-------------------------------------------------------------|
|-------------------------------------------------------------|
|-------------------------------------7p5---------7p5-----7p5-|
|-0---1---0-7/8-----5h7---------------------------------------|
|-0-0-1-0-0-----0-0-----0-0-0-3-3-3-3-----5-5-5-5-----7-7-----|
    *   *       * *     * * * * * * *     * * * *     * *
|-------------------------------------------------------------|
|-------------------------------------------------------------|
|-------------------------------------------------------------|
|-------------------------------------7p5---------7p5---------|
|-0---1---0-7/8-----5h7-----------------------------------7h8-|
|-0-0-1-0-0-----0-0-----0-0-0-3-3-3-3-----5-5-5-5-----7-7-----|
    *   *       * *     * * * * * * *     * * * *     * *

Guitar 2  Riff 1
|-------------------------------------------------------------|
|-------------------------------------------------------------|
|-------------------------------------------------------------|
|-----------5/7-----3h5---------------7p5---------7p5-----7p5-|
|-0---1---0---------------------------------------------------|
|-0-0-1-0-0-----0-0-----0-0-0-3-3-3-3-----5-5-5-5-----7-7-----|
    *   *       * *     * * * * * * *     * * * *     * *

|-------------------------------------------------------------|
|-------------------------------------------------------------|
|-------------------------------------------------------------|
|-----------5/7-----3h5---------------7p5---------7p5---------|
|-0---1---0-----------------------------------------------7h8-|
|-0-0-1-0-0-----0-0-----0-0-0-3-3-3-3-----5-5-5-5-----7-7-----|
    *   *       * *     * * * * * * *     * * * *     * *

Riff 2
|----------------------------------------------------|
|----------------------------------------------------|
|-10101010-10-9--9-9-9-9-9--10101010-10-9--9-9-9-9-9-|
|-10101010-10-9--9-9-9-9-9--10101010-10-9--9-9-9-9-9-|
|-8-8-8-8--8--7--7-7-7-7-7--8-8-8-8--8--7--7-7-7-7-7-|
|----------------------------------------------------|

|-------------------------------------------------------|
|-------------------------------------------------------|
|-------------------------------------------------------|
|-8-8-8-8--8--8--8-8-8-8-8--5-5-5-5--5--5--5-5-5-5-5--3-|
|-8-8-8-8--8--8--8-8-8-8-8--5-5-5-5--5--5--5-5-5-5-5--3-|
|-8-8-8-8--8--8--8-8-8-8-8--5-5-5-5--5--5--5-5-5-5-5--3-|

Both Guitars  Riff 3
|-------------------------------------------------------|
|-------------------------------------------------------|
|----------------------------------------7--------------|
|-0-------------3------------5-----------7--------------|
|-0-------------3------------5-----------5--------------|
|-0-------------3------------5-----------0--------------|

|--------------------------------------------------------|
|--------------------------------------------------------|
|-----------------------------7--------------------------|
|-0-------------10------------7-----------5--------------|
|-0-------------10------------5-----------5--------------|
|-0-------------10------------0-----------5--------------|

Both Guitars  Fill 2
|---------------------------|
|---------------------------|
|-7-7-7-7-9-9-9-9-101012-14-|
|-x-x-x-x-x-x-x-x-x-x--x--x-|
|-5-5-5-5-7-7-7-7-8-8-10-12-|
|---------------------------|


Riff 1

Riff 2

Riff 3

Guitar 1  Riff 4
|-------------------------------------------------------------------------|
|-------------------------------------------------------------------------|
|-------------------------------------------------------------------------|
|-------------------------------------------------------------------------|
|-----7-8-----5-7-----3-5-----5h7h8-----7-8-----5-7-----7h8-5-7p5-3-5p3-0-|
|-000-----000-----000-----000-------000-----000-----000-------------------|
  ***     ***     ***     ***       ***     ***     ***

Guitar 2
|-------------------------------------------------------------------------|
|-------------------------------------------------------------------------|
|-------------------------------------------------------------------------|
|-------------------------------------------------------------------------|
|--------------------------------------------------------X///////////////-|
|-------------------------------------------------------------------------|

Guitar 1  Riff 4  2x
|-------------------------------------------------------------------------|
|-------------------------------------------------------------------------|
|-------------------------------------------------------------------------|
|-------------------------------------------------------------------------|
|-----7-8-----5-7-----3-5-----5h7h8-----7-8-----5-7-----7h8-5-7p5-3-5p3-0-|
|-000-----000-----000-----000-------000-----000-----000-------------------|
  ***     ***     ***     ***       ***     ***     ***

Guitar 2  Riff 4  2x
|-------------------------------------------------------------------------|
|-------------------------------------------------------------------------|
|-------------------------------------------------------------------------|
|-----5-7-----3-5-----2-3-----3h5h7-----5-7-----3-5-----5h7-3-5p3-2-3p2-0-|
|-------------------------------------------------------------------------|
|-000-----000-----000-----000-------000-----000-----000-------------------|
  ***     ***     ***     ***       ***     ***     ***

Both Guitars  Riff 5  4x
|---------------------------|
|---------------------------|
|---------------------------|
|---------------------------|
|----9---10---7---9---10----|
|-00---0----0---0---0-------|
  **   *    *   *   *

Guitar 1  Riff 6  4x
|---------------------------------------------------|
|---------------------------------------------------|
|---------------------------------------------------|
|---------------------------------------------------|
|-------7---8---5---7-------------7---8-------------|
|-0-0-0---0---0---0---0-0-0-0-0-0---0---3-(5)-3-(4)-|
  * * *   *   *   *   * * * * * *   *

Guitar 2  Riff 6  4x
|---------------------------------------------------|
|---------------------------------------------------|
|---------------------------------------------------|
|-------5---7---3---5-------------5---7-------------|
|---------------------------------------------------|
|-0-0-0---0---0---0---0-0-0-0-0-0---0---3-(5)-3-(4)-|
  * * *   *   *   *   * * * * * *   *

Acoustic Guitar  Fill 3
|-----3---------3--------------|
|----3------------3------------|
|---0---------------0----------|
|--0------------------0--------|
|-2----------------------------|
|------------------------------|


Riff 4


Guitar 1   Repeat 3x
|---------------------------------|
|---------------------------------|
|-7-7-7-9-9-9-10-10-9-9-9-7-7-9-9-|
|-7-7-7-9-9-9-10-10-9-9-9-7-7-9-9-|
|-5-5-5-7-7-7-8-8-8-7-7-7-5-5-7-7-|
|---------------------------------|

|---------------------------------|
|---------------------------------|
|-7-7-7-9-9-9-10-10-9-9-9-7-7-9-9-|
|-7-7-7-9-9-9-10-10-9-9-9-7-7-9-9-|
|-5-5-5-7-7-7-8-8-8-7-7-7-5-5-7-7-|
|---------------------------------|

|----------------------------------|
|----------------------------------|
|-7-7-9-7-9-7-7-7-9-7-9-7--9-7-9-7-|
|-7-7-9-7-9-7-7-7-9-7-9-7--9-7-9-7-|
|-5-5-7-5-7-5-5-5-7-5-7-5--7-5-7-5-|
|----------------------------------|

|----------------------------------|
|----------------------------------|
|-7-7-9-7-9-7-7-7-9-7-9-7--9-7-9-7-|
|-x-x-x-x-x-x-x-x-x-x-x-x--x-x-x-x-|
|-5-5-7-5-7-5-5-5-7-5-7-5--7-5-7-5-|
|----------------------------------|

Guitar 2 Repeat 8x
|-------------------------------------|
|-------------------------------------|
|-------------------------------------|
|-------------------------------------|
|-0-0--0-0-0-0--0-0--0-0-0-0-0-0--0-0-|
|-0-0--0-0-0-0--0-0--0-0-0-0-0-0--0-0-|
  * *  * * * *  * *  * * * * * *  * *

Let notes ring
|-------------------------------------|
|-------------------------------------|
|-------------------------------------|
|-0-------------3------------5--------|
|-0-------------3------------5--------|
|-0-------------3------------5--------|

Guitar 1 Light distortion  Repeat until end
|--------------------------------------------------------------------------|
|---------------------------------------------3----------------3-----------|
|---2-4---2------2------2-4---2------2------2---2-0-2-0-2----2---2-0-2-0-2-|
|--------------------------------------------------------------------------|
|-0-----0---0---------0-----0---0---------0----------------0---------------|


Important: The song above is NOT stored on the Chordie server. The original song is hosted at www.xguitar.com. Chordie works as a search engine and provides on-the-fly formatting. Chordie does not index songs against artists'/composers' will. To remove this song please click here.

This song is displayed as text-only. Transposing and tuning is only available for chordpro-songs.

Login - add to songbook

Rating click stars to rate

Layout
Accuracy

SHARE PAGE  




You need to log in to post comments