Guitar Tabs, Chords and Lyrics


The Caitiff Choir: Revelations    It Dies Today



It Dies Today - The Caitiff Choir: Revelations
Tabbed By: mphsballer01
Email: mphsballer01@yahoo.com

Tuning: Drop C (C G C F A D)



Intro
|---------------------------------------------------------------------|
|---------------------------------------------------------------------|
|---------------------------------------------------------------------|
|---------------------------------------------------------------------|
|---8-----8---888----7-----7---777----4-----4---444-------------------|
|0-0--0-0---0-----0-0--0-0---0-----0-0--0-0---0-----0-0-8-0-0-8-0-888-|
   .                .                .                .
|--------------------------------------------------------------------------|
|--------------------------------------------------------------------------|
|--------------------------------------------------------------------------|
|---------------------------------------------------8-8-------4-4----------|
|---8-----8---888----7-----7---777----4-----4---444-8-8-11p10-4-4--9p8-4h5-|
|0-0--0-0---0-----0-0--0-0---0-----0-0--0-0---0-----8-8-------4-4----------|
   .                .                .
Verse
|----------------------------------------------|----------------------|
|---------------------------------------------.|----------------------|
|----------------------------------------------|----------------------|
|----------------------------------------------|----------------------|
|----1h4-----------------1h4------------------.|----------------------|
|000-----000-2-2b-2b--000---0-000--000-2-2b-2b-|-000-0-000------------|
 ...     ... .        ... . ...     ... .        ... . ...
|----------------------------------------------|-------|
|----------------------------------------------|-------|
|----------------------------------------------|-------|
|----------------------------------------------|-------|
|----1h4-----------------1h4-------------------|-------| 2x
|000-----000-2-2b-2b--000---0-000--000-2-2b-2b-|-000---|
 ...     ... .        ... . ...    ... .         ...
|-------------------------------------------------------------------|
|-------------------------------------------------------------------|
|-------------------------------------------------------------------|
|-------------------------------------------------------------------|
|-------------------1h4------------------------------------------*4*--|
|000-0-2-2b-2b--000-----000-2-2b-2b--000-000-000-0-000-000-0h4p0------|
 ... . .        ...     ... .        ... ... ... . ... ...

Chorus
|-------------------------------------------------------------------|
|-------------------------------------------------------------------|
|-------------------------------------------------------------------|
|-------------------------------------------------------------------|
|------------------------------------------------*4*----------------|
|-8p0-11p0-8--12--8p0-00000--000-000-0-000-0h4p0--------------------|
                      .....  ... ... . ...
|-------------------------------------------------------------------|
|-------------------------------------------------------------------|
|-------------------------------------------------------------------|
|---------------------------8-8-------4-4---------------------------|
|---------------------------8-8-11p10-4-4-9p8-4h5-------------------|
|-8p0-11p0-8--12--8p0-00000-8-8-------4-4---------------------------|
                      .....
Intro
|---------------------------------------------------------------------|
|---------------------------------------------------------------------|
|---------------------------------------------------------------------|
|---------------------------------------------------------------------|
|---8-----8---888----7-----7---777----4-----4---444-------------------|
|0-0--0-0---0-----0-0--0-0---0-----0-0--0-0---0-----0-0-8-0-0-8-0-888-|
   .                .                .                .
|--------------------------------------------------------------------------|-----|
|--------------------------------------------------------------------------|-----|
|--------------------------------------------------------------------------|-----|
|---------------------------------------------------8-8-------4-4----------|-----|
|---8-----8---888----7-----7---777----4-----4---444-8-8-11p10-4-4--9p8-4h5-|-----|
|0-0--0-0---0-----0-0--0-0---0-----0-0--0-0---0-----8-8-------4-4----------|-000-|
   .                .                .                                       ...
Verse
|-------------------------------------------------------------------|
|-------------------------------------------------------------------|
|-------------------------------------------------------------------|
|-------------------------------------------------------------------|
|--------------------1h4--------------------1h4---------------------|
|-000-0-2-2b-2b--000-----000-0-2-2b-2b--000------000-0-2-2b-2b------|
  ... . .        ...     ... . .        ...      ... . .
|---------------------------------------------------------------------|
|---------------------------------------------------------------------|
|---------------------------------------------------------------------|
|---------------------------------------------------------------------|
|-----1h4--------------------1h4--------------------1h4---------------|
|-000-----000-0-2-2b-2b--000-----000-0-2-2b-2b--000-----000-0-2-2b-2b-|
  ...     ... . .        ...     ... . .        ...     ... . .
|----------------------------------------------|-----------------------|
|----------------------------------------------|-----------------------|
|----------------------------------------------|-----------------------|
|----------------------------------------------|-----------------------|
|-----1h4--------------------1h4---------------|-----------------------|
|-000-----000-0-2-2b-2b--000-----000-0-2-2b-2b-|-000-0-000-------------|
  ...     ... . .        ...     ... . .         ... . ...

Breakdown
D|----------------------------------------------------------------||
A|----------------------------------------------------------------||
F|----------------------------------------------------------------||
C|-0-000-0-000-0-0-000-0-0-000-000-00-000-000-0-0-000-0-0-000-000-||
G|-0-000-0-000-0-0-000-0-0-000-000-00-000-000-0-0-000-0-0-000-000-||
C|-0-000-0-000-0-0-000-0-0-000-000-00-000-000-0-0-000-0-0-000-000-||
   . ... . ... . . ... . . ... ... .. ... ... . . ... . . ... ...

D|----------------||
A|----------------||
F|----------------||
C|-00-000-000-----||
G|-00-000-000-----||
C|-00-000-000-----||
   .. ... ...

Guitar part during break down is coming soon.

Chorus
|-------------------------------------------------------------------|
|------------------------------------------------------------------.|
|-------------------------------------------------------------------|
|----------------------------5-2--4-1-------------------------------|
|----------------------------5-2--4-1----------------*4*-----------.|
|-8p0-11p0-8--12--8p0-00000--5-2--4-1----------0h4p0----------------|Repeat 2x
                      .....
|-------------------------------------------------------------------|
|-------------------------------------------------------------------|
|-------------------------------------------------------------------|
|---------------------------8-8-------4-4---------------------------|
|---------------------------8-8-11p10-4-4-9p8-4h5-------------------|
|-8p0-11p0-8--12--8p0-00000-8-8-------4-4---------------------------|

Verse
|----------------------------------------------|-------------------------------|
|---------------------------------------------.|-------------------------------|
|----------------------------------------------|-------------------------------|
|----------------------------------------------|-------------------------------|
|----1h4-----------------1h4------------------.|-------------------------------|
|000-----000-2-2b-2b--000---000-2-2b-2b--------|-000-0-000---------------------|
 ...     ... .        ...          ... .         ... . ...

Final Breakdown
D|-------------------------------------------------------------------------------||
A|-------------------------------------------------------------------------------||
F|-------------------------------------------------------------------------------||
C|-000-0-000--000-0-000--000-0-000--000-0-000--000-0-000-------------------------||
G|-000-0-000--000-0-000--000-0-000--000-0-000--000-0-000-------------------------||
C|-000-0-000--000-0-000--000-0-000--000-0-000--000-0-000 Let last note ring------||
   ... . ...  ... . ...  ... . ...  ... . ...  ... . ...

D|----------------------------------------------------------------------------||
A|----------------------------------------------------------------------------||
F|----------------------------------------------------------------------------||
C|-000-0-000-2-6-----0-000--000-0-2-5-000--000-0-000-2-6-0-000--000-0-6-3-5---||
G|-000-0-000-2-6ring-0-000--000-0-2-5-000--000-0-000-2-6-0-000--000-0-6-3-5---||
C|-000-0-000-2-6-----0-000--000-0-2-5-000--000-0-000-2-6-0-000--000-0-6-3-5---||
   ... . ...         . ...  ... .     ...  ... . ...     . ...  ... .

D|----------------||
A|----------------||
F|----------------||
C|-000-0-000------||
G|-000-0-000------||
C|-000-0-000------||


Important: The song above is NOT stored on the Chordie server. The original song is hosted at www.xguitar.com. Chordie works as a search engine and provides on-the-fly formatting. Chordie does not index songs against artists'/composers' will. To remove this song please click here.

This song is displayed as text-only. Transposing and tuning is only available for chordpro-songs.

Login - add to songbook

Rating click stars to rate

Layout
Accuracy

SHARE PAGE  




You need to log in to post comments