Guitar Tabs, Chords and Lyrics


Freak Gasoline Fight Accident    It Dies Today



It Dies Today - Freak Gasoline Fight Accident

Tuning: Drop C (CGCFAD)

â€Å" - tremolo pick
* - palm mute
X - mute
h - hammer on
/ - Slide
X// - pick scratch

This is my first tab so please rate :) This is the album version, if you have the
demo version, its the same thing. Just some riffs repeat themselves on the demo version.
Any questions or comments e-mail me xboddahx@hotmail.com.

Gtr. 1 Intro  				           8x
D |-------------------------------------------------|
A |-------------------------------------------------|
F |-7-7-7-7-10-7-7-9-7-7-7-7-7-7-10-7-9-7-9-7-9h10--|
C |-------------------------------------------------|
G |-------------------------------------------------|
C |-------------------------------------------------|

Gtr. 2 Intro		                          	   2x			
D |---------------------------------------------------------|
A |---------------------------------------------------------|
F |---------------------------------------------------------|
C |-3-------------------------------------------------------|
G |-3-------------------------------------------------------|
C |-3-------------------------------------------------------|
		  			
D |--------------------------|
A |--------------------------|
F |--------------------------|
C |-X//////------------3~-5~-|
G |-X////////////////--3~-5~-|
C |-----X////////////--3~-5~-|

(listen for timing)		                	   			
D |------------------------------------|
A |------------------------------------|
F |------------------------------------|
C |------------------------------------|
G |------------------------------------|
C |-0000000000000000000033333555588888-|
    **********************************

Gtr. 1 (1st half ) 1st Verse                      4x
D |------------------------------------------------|
A |------------------------------------------------|
F |-7-7-7-7-10-7-7-9-7-7-7-7-7-7-10-7-9-7-9-7-9h10-|
C |------------------------------------------------|
G |------------------------------------------------|
C |------------------------------------------------|
Gtr. 2  (1st half ) 1st Verse   	1x
D |------------------------------------|
A |------------------------------------|
F |------------------------------------|
C |------------------------------------|
G |------------------------------------|
C |-0000000000000000000033333555588888-|
    **********************************

Gtr. 3 Verse  (1st half ) 1st Verse            4x
D |---------------------------------------------|
A |-6-6-6-6-9-6-6-8-6-6-6-6-6-6-9-6-8-6-8-6-8h9-|
F |---------------------------------------------|
C |---------------------------------------------|
G |---------------------------------------------|
C |---------------------------------------------|

Gtrs. 1 & 2 (2nd half) 1st Verse
D |-------------------------------------------------------------------------------------|
A |-------------------------------------------------------------------------------------|
F |-------------------------------------------------------------------------------------|
C |-------------------------------------------------------------------------------------|
G |-----8-------8------8------8------8--------8-------8------8------8------8-----10-8-7-|
C |-0-0----0-0----0-0----0-0----0-0-------0-0-----0-0----0-0----0-0----0-0----0---------|
    * *    * *    * *    * *    * *       * *     * *    * *    * *    * *    *

Gtr. 1 (2nd half) 1st Verse 		  				              2x	
D |------------------------------------------------------------------------------------|
A |------------------------------------------------------------------------------------|
F |------------------------------------------------------------------------------------|
C |--------------------------------------------------------------------------10--------|
G |------5-----5------5-------5------5---------7-------7------7------------------10h12-|
C |-0-0----0-0----0-0----0-0----0-0-------0-0-----0-0----0-0----0-0-----0-0------------|
    * *    * *    * *    * *    * *       * *     * *    * *    * *     * *

 Gtr. 2 (2nd half) 1st Verse 						           2x
D |---------------------------------------------------------------------------------|
A |---------------------------------------------------------------------------------|
F |-------------------------------------------------------------------------8-------|
C |----------------------------------------------------------------------------8h10-|
G |-----5------5------5-------5------5---------7-------7------7---------------------|
C |-0-0----0-0----0-0----0-0----0-0-------0-0-----0-0----0-0----0-0----0-0----------|
    * *    * *    * *    * *    * *       * *     * *    * *    * *    * *

Gtrs. 1 & 2 Fill
D |-----------------------|
A |-----------------------|
F |------14~------17~-16~-|
C |-------X~-------X~--X~-|
G |------12~------15~-14~-|
C |-0-0-------0-0---------|
    * *       * *

Gtr. 1 Chorus      					           8x
D |------------------------------------------------------------------|
A |------------------------------------------------------------------|
F |-14--1414--12--10-10-10-10-10--12---9-9-9-9-9--10--7--99--9/10\9--|
C |--x--x-x---x---x--x--x--x--x---x----x-x-x-x-x--x---x--xx--x/-x-\x-|
G |-12--1212--10--8--8--8--8--8---10---7-7-7-7-7--8---5--77--7/-8-\7-|
C |------------------------------------------------------------------|
		  			
Gtr. 2 Chorus						        7x
D |--------------------------------------------------------------|
A |--------------------------------------------------------------|
F |-14--1414--12--1010101010--12---9-9-9-9-9--10--7--99--9/10-\9-|
C |-14--1414--12--1010101010--12---9-9-9-9-9--10--7--99--9/-8-\9-|
G |-12--1212--10---8-8-8-8-8--10---7-7-7-7-7--8---5--77--7/-8-\7-|
C |--------------------------------------------------------------|

Gtr. 3					                     3x	
D |-5-5-7-8-7-5-7-7--5-7-8-7-5-7-7--5-7-8-7-5-7-7--7-8-10-8-7-|
A |-----------------------------------------------------------|
F |-----------------------------------------------------------|
C |-----------------------------------------------------------|
G |-----------------------------------------------------------|
C |-----------------------------------------------------------|

Gtr. 2    joins gtr. 1 3rd time                                                         1x	
D |-10-10-12-13-12-10-12-12--10-12-13-12-10-12-12--10-12-13-12-10-12-12--12-13-15-13-12-|
A |-------------------------------------------------------------------------------------|
F |-------------------------------------------------------------------------------------|
C |-------------------------------------------------------------------------------------|
G |--------------|----------------------------------------------------------------------|  	

Gtr. 1 Fill (Not sure about this riff, but sounds ok)
D |-------------------------------------------------|
A |-------------------------------------------------|
F |-------------------------------------------------|
C |-X//////-----------6-5-4-5-4-3-4-3-2-3-2-1-2-1-0-|
G |-X////////////////-6-5-4-5-4-3-4-3-2-3-2-1-2-1-0-|
C |-----X///////////--6-5-4-5-4-3-4-3-2-3-2-1-2-1-0-|

Gtr. 4 Fill
D |---------------------------------------------|
A |---------------------------------------------|
F |---------------------------------------------|
C |---------------6-5-4-5-4-3-4-3-2-3-2-1-2-1-0-|
G |-17/////////---6-5-4-5-4-3-4-3-2-3-2-1-2-1-0-|
C |-17/////////---6-5-4-5-4-3-4-3-2-3-2-1-2-1-0-|

Gtr. 1 & 2 (1st half) 1st Breakdown  (listen for exact timing) 4x
D |----------------------------------------|
A |----------------------------------------|
F |----------------------------------------|
C |----------------------------------------|
G |-000000---00---00---00---0000---00---00-|
C |-000000---00---00---00---0000---00---00-|
    ******   **   **   **   ****   **   **

Gtr. 1 & 2 Fill
D |--------------|
A |--------------|
F |--------------|
C |--------------|
G |-17//////////-|
C |-17//////////-|
 	
Gtr. 1 & 2 (2nd half) 1st Breakdown  4x
D |---------------------|
A |---------------------|
F |---------------------|
C |---------------------|
G |-0-0-0~---0-0~---00~-|
C |-0-0-0~---0-0~---00~-|
    * * *    * *    **
Gtrs. 1 & 2
D |-----------------------------|
A |-----------------------------|
F |-----------------------------|
C |-----------------------------|
G |---4-5----6-7---8-7-10-8-7-8-|
C |-3-----5-----7---------------|

Gtr. 1
D |--------------------|
A |--------------------|
F |--------------------|
C |-3~-------5~--------|
G |-3~-5-7---5~-7-8-7~-|
C |-3~-------5~--------|

Gtr. 2
D |------------------------|
A |------------------------|
F |------------------------|
C |-3~--------5~-----------|
G |-3~-8-10---5~-10-11-10~-|
C |-3~--------5~-----------|

Gtr. 1 Chorus      					           8x
D |-----------------------------------------------------------------|
A |-----------------------------------------------------------------|
F |-14--1414--12--10-10-10-10-10--12--9-9-9-9-9--10--7--99--9/10\9--|
C |--x--x-x---x---x--x--x--x--x---x---x-x-x-x-x--x---x--xx--x/-x-\x-|
G |-12--1212--10--8--8--8--8--8---10--7-7-7-7-7--8---5--77--7/-8-\7-|
C |-----------------------------------------------------------------|
		  			
Gtr. 2 Chorus						         7x
D |--------------------------------------------------------------|
A |--------------------------------------------------------------|
F |-14--1414--12--1010101010--12---9-9-9-9-9--10--7--99--9/10\9--|
C |-14--1414--12--1010101010--12---9-9-9-9-9--10--7--99--9/-8-\9-|
G |-12--1212--10--8-8-8-8--8--10---7-7-7-7-7--8---5--77--7/-8-\7-|
C |--------------------------------------------------------------|

Gtr. 3					                 	2x	
D |-5-5-7-8-7-5-7-7--5-7-8-7-5-7-7--5-7-8-7-5-7-7--7-8-10-8-7-|
A |-----------------------------------------------------------|
F |-----------------------------------------------------------|
C |-----------------------------------------------------------|
G |-----------------------------------------------------------|
C |-----------------------------------------------------------|

Gtr. 3   let note then feedback ring
D |-5~~~-------------------------------------------------------------------|
A |------------------------------------------------------------------------|
F |------------------------------------------------------------------------|
C |------------------------------------------------------------------------|
G |------------------------------------------------------------------------|
C |------------------------------------------------------------------------|

Gtr. 2   let note then feedback ring
D |-10~~~------------------------------------------------------------------|
A |------------------------------------------------------------------------|
F |------------------------------------------------------------------------|
C |------------------------------------------------------------------------|
G |------------------------------------------------------------------------|
C |------------------------------------------------------------------------|

Gtrs. 1 & 2 2nd Breakdown    4x
D |--------------------------|
A |--------------------------|
F |--------------------------|
C |-17//////-----------------|
G |-17/////--000-0---00-0-0--|
C |-17/////--000-0---00-0-0--|
             *** *   ** * *

Gtr. 1 2nd Breakdown
D |------------------------------------------------------------------------|
A |------------------------------------------------------------------------|
F |------------------------------------------------------------------------|
C |------------------------------------------------------------------------|
G |-0-0----0-0-0-0-0-0-0-0-0-0-0-0-0-0-0-0-0-0-0-0-0-0-0-0-0-0-0-0-0-0-0-0-|
C |-0-0----0-0-0-0-0-0-0-0-0-0-0-0-0-0-0-0-0-0-0-0-0-0-0-0-0-0-0-0-0-0-0-0-|
    * *    * * * * * * * * * * * * * * * * * * * * * * * * * * * * * * * *

Gtr. 2 2nd Breakdown
D |-------------------------------------------------------------------------|
A |-------------------------------------------------------------------------|
F |-------------------------------------------------------------------------|
C |-17////------------------------------------------------------------------|
G |-17////--0-0-0-0-0-0-----0-0-0-0-0-0-----0-0-0-0-0-0-----0-0-0-0-0-0-----|
C |-17////--0-0-0-0-0-0-----0-0-0-0-0-0-----0-0-0-0-0-0-----0-0-0-0-0-0-----|
            * * * * * *     * * * * * *     * * * * * *     * * * * * *

Gtrs. 1 & 2  2nd Breakdown
D |------------------------------|
A |------------------------------|
F |------------------------------|
C |------------------------------|
G |-0-0-0-0-0-0-----0-0-0-0-0-0~-|
C |-0-0-0-0-0-0-----0-0-0-0-0-0~-|


Important: The song above is NOT stored on the Chordie server. The original song is hosted at www.xguitar.com. Chordie works as a search engine and provides on-the-fly formatting. Chordie does not index songs against artists'/composers' will. To remove this song please click here.

This song is displayed as text-only. Transposing and tuning is only available for chordpro-songs.

Login - add to songbook

Rating click stars to rate

Layout
Accuracy

SHARE PAGE  




You need to log in to post comments