Guitar Tabs, Chords and Lyrics


Forever Scorned    It Dies Today



Band:  It Dies Today
Album: Forever Scorned
Song:  Forever Scorned

Transcribed By: PunkDude
Email:          stjimmy730@hotmail.com


.  - palm mute           /  - slide up to
\  - slide down to       ~  - vibrato
h  - hammer on           b  - Bend
p  - pull off            Suffixes for bend
ph - pinched harmonic    *  - see comment

Tuning C G C F A D

G|8-7-8-10-12H13P12-10-12--------------------------------------------|
C|-------------------------------------------------------------------|

F|----444-1/2------5-4-1/2-------------------------------------------|
C|000-444-1/2-2-1--5-4-1/2-2-1---------------------------------------|
G|000-444-1/2-2-1--5-4-1/2-2-1---------------------------------------|
C|000---------2-1----------2-1---------------------------------------|

C|--------------------------------------------------------22221111---|
G|555577775555444455551111--------55557777555544445555111122221111---|
C|------------------------22221111------------------------22221111---|
 ........................................................

C|0-0----------------0-0---------------------------------------------|
G|0-0-8-7-8-4-5-(3X)-0-0-8-7-8-7-10----------------------------------|
C|0-0----------------0-0---------------------------------------------|

C|0-0-7-5-7-8-7(2X)-0-0-8-7-8-10-8-(2X)------------------------------|
G|0-0---------------0-0----------------------------------------------|
C|0-0---------------0-0----------------------------------------------|

F|5-------------1-------------3-----------1--------------------------|
C|5-------------1--10-8-7-8-7-3-8-7-5-7-5-1--2-3-5-0-----------------|
G|5--7-8-10-8-7-1-------------3-----------1--------0-----------------|
C|-------------------------------------------------0-----------------|

F|---------------------------1-------------3-----------1-------------|
C|000---------000------------1--10-8-7-8-7-3-8-7-5-7-5-1--2-3-5-0----|
G|000-8-8-8-7-000-7-8-10-8-7-1-------------3-----------1--------0----|
C|000---------000-----------------------------------------------0----|

F|----5*--3*---------------------------------------------------------|
C|000-5---3----------------------------------------------------------|
G|000-5---3----------------------------------------------------------|
C|000----------------------------------------------------------------|
*let ring

F|--------------------5----------------------------------------------|
C|-------------7-77-7-5-000----------------7-77-7-00----------888777-|
G|8-7-8-10-8-7-8-88-8-5-000-8-7-8-10-8-7-5-8-88-8-00-888101010-------|
C|----------------------000------------------------------------------|

C|0-0---------------0-0--------------0-0-----------------------------|
G|0-0-7-8-7-8-7-8-7-0-0-7-8-7-8-7-10-0-0-7-8-7-8-7-8-7-10-8-7-8-7-5-8|
C|0-0---------------0-0--------------0-0-----------------------------|
cont.
C|7-5-7-5-3-111-333--------------------------------------------------|
G|----------111-333--------------------------------------------------|

C|10-8-10-000-8-7-8-000-6-5-6-000-5-3-5------------------------------|
G|--------000-------000-------000------------------------------------|
C|--------000-------000-------000------------------------------------|

C|10-8-10-000-8-7-8-000-6-5-6-000-7-10-8-----------------------------|
G|--------000-------000-------000------------------------------------|
C|--------000-------000-------000------------------------------------|

F|-------------------------------9ph---------------------------------|
C|0-0-000-0-0-000-0-0-000-0-0-00-------------------------------------|
G|0-0-000-0-0-000-0-0-000-0-0-00-------------------------------------|
C|0-0-000-0-0-000-0-0-000-0-0-00-------------------------------------|

F|--------------9ph---------------5ph--------------------------------|
C|0-2-1-0-0-2-1-----0-2-1-0-0-2-1------------------------------------|
G|0-2-1-0-0-2-1-----0-2-1-0-0-2-1------------------------------------|
C|0-2-1-0-0-2-1-----0-2-1-0-0-2-1------------------------------------|

G|5*-7-8-7-8-10h13p12-8-3-5------------------------------------------|
C|-------------------------------------------------------------------|
*let ring


Important: The song above is NOT stored on the Chordie server. The original song is hosted at www.xguitar.com. Chordie works as a search engine and provides on-the-fly formatting. Chordie does not index songs against artists'/composers' will. To remove this song please click here.

This song is displayed as text-only. Transposing and tuning is only available for chordpro-songs.

Login - add to songbook

Rating click stars to rate

Layout
Accuracy

SHARE PAGE  




You need to log in to post comments