Guitar Tabs, Chords and Lyrics


Ain't No Right    Jane's Addiction




NOTE--------------------------------#

the#

research.#


--#




Author/Artist:Jane\\'s Addiction
Title:Aint No Right
Album:Ritual De Lo Habitual
Transcribed by:
Email: Gorbeeze@aol.com




  Email me any corrections and please comment and rate!!! thanks!

  There maybe some delay in this song, but i do not know for absolute sure...

Bass intro while perry is talking...

G-|-------------------------------------------------------------------|-
D-|-------------------------------------------------------------------|-
A-|-------------------------------------------------------------------|-
E-|--5-5-5-5-5----5/3--3-3---3/5-5-5-5----5/3-3-3---------------------|-



G-|------------------------------|-------------------------------------|-
D-|------------------------------|-------------------------------------|-
A-|--------------4-2-------------|-------------------------------------|-
E-|-0h2-2-2-2-2------------------|-------------------------------------|-

   Somehting like that^



      Harm
e-|------------------------------|-------------------------------------|-
B-|------------------------------|-------------------------------------|-
G-|----4--x----------------------|-------------------------------------|-
D-|-------x----------------------|-------------------------------------|-
A-|-----------x------------------|-------------------------------------|-
E-|-----------x------------------|-------------------------------------|-


e-|-----------------0-------------|-----0-------------------------------|-
B-|--------------3-------3--------|--------0--2-------------------------|-
G-|-x--2---2-----4-----4----------|--2-----------2-2-2------------------|-
D-|-x--2---2----------------------|--2-----------2-2-2------------------|-
A-|-x--0---0----------------------|--0-----------0-0-0-3-3-3-3-3-3-3-3--|-
E-|-------------------------------|-------------------------------------|-
                                                       PM..............
                                               (kettle Whistle version, its a harmonic and bend)



 Guitar 1           Harmonic.....                     Harmonic.....
e-|-------------------------------|-------------------------------------|-
B-|-2--x-x-2--x--2----------------|---2--x-x-2--x--2--------------------|-
G-|-2--x-x-2--x--2--4-4-4-4-4-4-4-|---2--x-x-2--x--2--4-4-4-4-4-4-4-----|-
D-|-------------------------------|-------------------------------------|-
A-|-------------------------------|-------------------------------------|-
E-|-------------------------------|-------------------------------------|-

 Guitar 2
e-|------------------------------|-------------------------------------|-
B-|------------------------------|-------------------------------------|-
G-|---------------------------6--|----------------------------4--------|-
D-|---------------------------6--|----------------------------4--------|-
A-|------------------------------|-------------------------------------|-
E-|--0h2-2-2-2-2-2-2-2-2-2-2-----|--0h2-2-2-2-2-2-2-2-2-2-2------------|-

         PM.................           PM..................




   Solo

e-|--------------------------------------------------------------------|-
B-|--17^-17^---17^-------14----17p14--16p14------14-17p14-16p14--------|-
G-|--16^-16^---16^----16---------------------17-----------------16-----|-
D-|--------------------------------------------------------------------|-
A-|--------------------------------------------------------------------|-
E-|--------------------------------------------------------------------|-



e-|--------------------------------------------16^--(16)--14------14--|-
B-|-14-17p14-16p14------14-----------------------------------17^------|-
G-|------------------16----16--16p14--16---14-------------------------|-
D-|-------------------------------------------------------------------|-
A-|-------------------------------------------------------------------|-
E-|-------------------------------------------------------------------|-



e-|-------------------------------------------------------------------|-
B-|-0------4^p2--4--2---4p2----2--2p3--------------2h3----------5-----|-
G-|-0------------------------4--------4p2------2h4-----4/--4/6--------|-
D-|----------------------------------------2h4------------------------|-
A-|-------------------------------------------------------------------|-
E-|-------------------------------------------------------------------|-



e-|-------------------------------------------------------------------|-
B-|------5------5-----5---------------------14-14---------------------|-
G-|--4/6----4/6---4/6---4/6--4/6---4/-14-14-14-14-14-14-(14^)-(14/)---|-
D-|-----------------------------------14-14-14-14-14------------------|-
A-|-------------------------------------------------------------------|-
E-|-------------------------------------------------------------------|-



   Chorus Solo

e-|-------------------------------------------------------------------|-
B-|-------------------------------------------------------------------|-
G-|--4^--(4)p2-4--2h4----4^-(4)p2--4^--(4)p2--------------------------|-
D-|------------------------------------------4------------------------|-
A-|-------------------------------------------------------------------|-
E-|-------------------------------------------------------------------|-


                                                  P.H.
e-|------------------------------|-------------------------------------|-
B-|------------------------------|-2-x-x--2-x--2-----------------------|-
G-|------------------------------|-2-x-x--2-x--2---4-------------------|-
D-|------------------------------|-------------------------------------|-
A-|------------------------------|-------------------------------------|-
E-|------------------------------|-------------------------------------|-



e-|----9-12p9-12p9-10-10-10-10-10-10-10-10-----------------------------|-
B-|-12----------------------------------------17^--17^-(17)----------14|-
G-|---------------------------------------------------------14----16---|-
D-|------------------------------------------------------------16------|-
A-|--------------------------------------------------------------------|-
E-|--------------------------------------------------------------------|-



e-|---------------------------------------------------14p12-14p12-14---|-
B-|-17p14----14-17p14----14-17p14-----14-17p14----14---1-------------14|-
G-|-------16----------16----------16-----------16----------------------|-
D-|--------------------------------------------------------------------|-
A-|--------------------------------------------------------------------|-
E-|--------------------------------------------------------------------|-



e-|14p12-------------------------|-------------------------------------|-
B-|------14h15-15-15-15----------|-------------------------------------|-
G-|------------------------------|-------------------------------------|-
D-|------------------------------|-------------------------------------|-
A-|------------------------------|-------------------------------------|-
E-|------------------------------|-------------------------------------|-


	

e-|-9--12--9-9----9---9-------------------------------------------------|-
B-|-10-------10---10--10-12^(12)p10-------2/19--------------------------|-
G-|---------------------------------9/----------------------------------|-
D-|---------------------------------------------------------------------|-
A-|---------------------------------------------------------------------|-
E-|---------------------------------------------------------------------|-


e-|------------------------------|-------------------------------------|-
B-|------------------------------|-------------------------------------|-
G-|------------------------------|-------------------------------------|-
D-|------------------------------|-------------------------------------|-
A-|------------------------------|-------------------------------------|-


Important: The song above is NOT stored on the Chordie server. The original song is hosted at www.xguitar.com. Chordie works as a search engine and provides on-the-fly formatting. Chordie does not index songs against artists'/composers' will. To remove this song please click here.

This song is displayed as text-only. Transposing and tuning is only available for chordpro-songs.

Login - add to songbook

Rating click stars to rate

Layout
Accuracy

SHARE PAGE  




You need to log in to post comments