Guitar Tabs, Chords and Lyrics


Obvious    Jane's Addiction










Author/Artist: Jane´s Addiction
Title: Ocean Size
Album: Nothing´s Shocking
Transcribed by: Greenie 12
Email: onkel44@hotmail.com


Tuning: (E,A,D,G,B,e)


     :29
e-|----------------------------|------------------------------|-
B-|----------------------------|------------------------------|-
G-|--9-------------------------|--9-----------)\\)\\------------|-
D-|-------10----8----10--------|-------10----8------10--------|-
A-|----------------------10----|------------------------10----|-
E-|----------------------------|------------------------------|-


e-|-------------------------------------|---------------------------|-
B-|---------------8----11--10----8------|--8-----------8------------|-
G-|--10--9----10--------------------10--|-----9----10---------------|-
D-|-------------------------------------|---------------------------|-
A-|-------------------------------------|---------------------------|-
E-|-------------------------------------|---------------------------|-


e-|-------------------------------|--------------------------------|-
B-|--11----11/13~~~~~~------------|--(13)--------------------------|-
G-|-------------------------------|--------------------------------|-
D-|-------------------------------|--------------------------------|-
A-|-------------------------------|--------------------------------|-
E-|-------------------------------|--------------------------------|-



     1:11
e-|----------------------------|-------------------------------|-
B-|----------------------------|-------------------------------|-
G-|--9-------------------------|--9----------------------------|-
D-|-------10----8----10--------|-------10----8----10/12--10----|-
A-|----------------------10----|-------------------------------|-
E-|----------------------------|-------------------------------|-



     1:21
e-|--------------8-8-8-8-8-8--|--------------8-8-8-8-8-8--|-
B-|--------------8-8-8-8-8-8--|--------------8-8-8-8-8-8--|-
G-|--2----2------6-6-6-6-6-6--|--2----2------6-6-6-6-6-6--|-
D-|--2----2------7-7-7-7-7-7--|--2----2------7-7-7-7-7-7--|-
A-|--0----0-------------------|--0----0-------------------|-
E-|---------------------------|---------------------------|-


e-|--------------8-8-8-8-8-8--|--------------8-8-8-8-8-8--|-
B-|--------------8-8-8-8-8-8--|--------------8-8-8-8-8-8--|-
G-|--2----2------6-6-6-6-6-6--|--2----2------6-6-6-6-6-6--|-
D-|--2----2------7-7-7-7-7-7--|--2----2------7-7-7-7-7-7--|-
A-|--0----0-------------------|--0----0-------------------|-
E-|---------------------------|---------------------------|-





     1:31
e-|--------------------------|-----------------------------|-
B-|--------------------------|-----------------------------|-
G-|--------------------------|-----------------------------|-
D-|--5-----------------------|--(5)------------------------|-
A-|--5-----------------------|--(5)------------------------|-
E-|--3-----------------------|--(3)------------------------|-



     1:37
e-|----------------------------|-------------------------------|-
B-|----------------------------|-------------------------------|-
G-|--9-------------------------|--9----------------------------|-
D-|-------10----8----10--------|-------10----8----10/12--10----|-
A-|----------------------10----|-------------------------------|-
E-|----------------------------|-------------------------------|-



     1:47
e-|---------------------------|------------------------------|-
B-|---8-----------------------|---8----------------8------8--|-
G-|--10-----------------------|--10-------------------10-----|-
D-|--10-----------------------|--10--------------------------|-
A-|---8-----------------------|---8--------------------------|-
E-|---------------------------|------------------------------|-



     1:52
e-|--------------------------|-----------------------------|-
B-|--------------------------|-----------------------------|-
G-|--5-----------------------|--(5)------------------------|-
D-|--5-----------------------|--(5)------------------------|-
A-|--3-----------------------|--(3)------------------------|-
E-|--------------------------|-----------------------------|-



     2:13
e-|-------------------------------|-----------------------------------|-
B-|--13~~~~~----11-10-11----10-8--|--10-8----8--)\\--------------------|-
G-|-------------------------------|-------10---9----------------------|-
D-|-------------------------------|-----------------10----------------|-
A-|-------------------------------|-----------------------------------|-
E-|-------------------------------|-----------------------------------|-


e-|------------------------------|---------------------------------|-
B-|------------------------------|---------------------------------|-
G-|------------------------------|---------------------------------|-
D-|--8--------------------10/12--|--10-----------------------------|-
A-|------------------------------|---------------------------------|-
E-|------------------------------|---------------------------------|-




     2:23
e-|--------------8-8-8-8-8-8--|--------------8-8-8-8-8-8--|-
B-|--------------8-8-8-8-8-8--|--------------8-8-8-8-8-8--|-
G-|--2----2------6-6-6-6-6-6--|--2----2------6-6-6-6-6-6--|-
D-|--2----2------7-7-7-7-7-7--|--2----2------7-7-7-7-7-7--|-
A-|--0----0-------------------|--0----0-------------------|-
E-|---------------------------|---------------------------|-


e-|--------------8-8-8-8-8-8--|--------------8-8-8-8-8-8--|-
B-|--------------8-8-8-8-8-8--|--------------8-8-8-8-8-8--|-
G-|--2----2------6-6-6-6-6-6--|--2----2------6-6-6-6-6-6--|-
D-|--2----2------7-7-7-7-7-7--|--2----2------7-7-7-7-7-7--|-
A-|--0----0-------------------|--0----0-------------------|-
E-|---------------------------|---------------------------|-



     2:34
e-|--------------------------|-----------------------------|-
B-|--------------------------|-----------------------------|-
G-|--------------------------|-----------------------------|-
D-|--5-----------------------|--(5)------------------------|-
A-|--5-----------------------|--(5)------------------------|-
E-|--3-----------------------|--(3)------------------------|-




     2:39
e-|----------------------------|----------------------------|-
B-|----------------------------|----------------------------|-
G-|--9-------------------------|--9-------------------------|-
D-|-------10----8----10--------|-------10----8----10--------|-
A-|----------------------10----|----------------------10----|-
E-|----------------------------|----------------------------|-



     2:49
e-|--8\\-----------------------|--8\\-----------------------|-
B-|--8\\------------6--5--(5)--|--8\\------------6--5--(5)--|-
G-|--6\\------------5--5--(5)--|--6\\------------5--5--(5)--|-
D-|--7\\------------5--5--(5)--|--7\\------------5--5--(5)--|-
A-|---------------------------|---------------------------|-
E-|---------------------------|---------------------------|-


e-|---------------------------|-----------------------------|-
B-|---------------------------|-----------------------------|-
G-|--5------------------------|--8------------10------------|-
D-|--5------------------------|--8------------10------------|-
A-|--3------------------------|--6-------------8------------|-
E-|---------------------------|-----------------------------|-


e-|--8\\-----------------------|--8\\-----------------------|-
B-|--8\\------------6--5--(5)--|--8\\------------6--5--(5)--|-
G-|--6\\------------5--5--(5)--|--6\\------------5--5--(5)--|-
D-|--7\\------------5--5--(5)--|--7\\------------5--5--(5)--|-
A-|---------------------------|---------------------------|-
E-|---------------------------|---------------------------|-


e-|---------------------------|-----------------------------|-
B-|---------------------------|-----------------------------|-
G-|--5------------------------|--8------------10------------|-
D-|--5------------------------|--8------------10------------|-
A-|--3------------------------|--6-------------8------------|-
E-|---------------------------|-----------------------------|-



     3:10
e-|--8----10--------8----)\\)\\-----------|--8----10--------8----)\\)\\-----------|-
B-|-----------11-------10------11--8----|-----------11-------10----(10)--8----|-
G-|-------------------------------------|-------------------------------------|-
D-|-------------------------------------|-------------------------------------|-
A-|-------------------------------------|-------------------------------------|-
E-|-------------------------------------|-------------------------------------|-



     3:20
e-|---------------------------|------------------------------|-
B-|---8-----------------------|---8----------------8------8--|-
G-|--10-----------------------|--10-------------------10-----|-
D-|--10-----------------------|--10--------------------------|-
A-|---8-----------------------|---8--------------------------|-
E-|---------------------------|------------------------------|-



     3:25
e-|--------------------------|-----------------------------|-
B-|--------------------------|-----------------------------|-
G-|--5-----------------------|--(5)------------------------|-
D-|--5-----------------------|--(5)------------------------|-
A-|--3-----------------------|--(3)------------------------|-
E-|--------------------------|-----------------------------|-



     3:46
e-|--20~~~~~----18-17-18----17-15--|--17-15----15---)\\--------------------|-
B-|--------------------------------|--------18----17----15----17--15------|-
G-|--------------------------------|----------------------------------15--|-
D-|--------------------------------|--------------------------------------|-
A-|--------------------------------|--------------------------------------|-
E-|--------------------------------|--------------------------------------|-


e-|---------------------------------|---------------------------------|-
B-|---------------------------------|---------------------------------|-
G-|--(15)--------------------15/17--|--17-----------------------------|-
D-|---------------------------------|---------------------------------|-
A-|---------------------------------|---------------------------------|-
E-|---------------------------------|---------------------------------|-




     3:56
e-|--------------8-8-8-8-8-8--|--------------8-8-8-8-8-8--|-
B-|--------------8-8-8-8-8-8--|--------------8-8-8-8-8-8--|-
G-|--2----2------6-6-6-6-6-6--|--2----2------6-6-6-6-6-6--|-
D-|--2----2------7-7-7-7-7-7--|--2----2------7-7-7-7-7-7--|-
A-|--0----0-------------------|--0----0-------------------|-
E-|---------------------------|---------------------------|-


e-|--------------8-8-8-8-8-8--|--------------8-8-8-8-8-8--|-
B-|--------------8-8-8-8-8-8--|--------------8-8-8-8-8-8--|-
G-|--2----2------6-6-6-6-6-6--|--2----2------6-6-6-6-6-6--|-
D-|--2----2------7-7-7-7-7-7--|--2----2------7-7-7-7-7-7--|-
A-|--0----0-------------------|--0----0-------------------|-
E-|---------------------------|---------------------------|-



     4:07
e-|--------------------------|-----------------------------|-
B-|--------------------------|-----------------------------|-
G-|--------------------------|-----------------------------|-
D-|--5-----------------------|--(5)------------------------|-
A-|--5-----------------------|--(5)------------------------|-
E-|--3-----------------------|--(3)------------------------|-



     4:12
e-|----------------------------|-------------------------------|-
B-|----------------------------|-------------------------------|-
G-|--9-------------------------|--9----------------------------|-
D-|-------10----8----10--------|-------10----8----10/12--10----|-
A-|----------------------10----|-------------------------------|-
E-|----------------------------|-------------------------------|-



     4:22
e-|--8\\-----------------------|--8\\-----------------------|-
B-|--8\\------------6--5--(5)--|--8\\------------6--5--(5)--|-
G-|--6\\------------5--5--(5)--|--6\\------------5--5--(5)--|-
D-|--7\\------------5--5--(5)--|--7\\------------5--5--(5)--|-
A-|---------------------------|---------------------------|-
E-|---------------------------|---------------------------|-


e-|---------------------------|-----------------------------|-
B-|---------------------------|-----------------------------|-
G-|--5------------------------|--8------------10------------|-
D-|--5------------------------|--8------------10------------|-
A-|--3------------------------|--6-------------8------------|-
E-|---------------------------|-----------------------------|-




e-|--8\\-----------------------|--8\\-----------------------|-
B-|--8\\------------6--5--(5)--|--8\\------------6--5--(5)--|-
G-|--6\\------------5--5--(5)--|--6\\------------5--5--(5)--|-
D-|--7\\------------5--5--(5)--|--7\\------------5--5--(5)--|-
A-|---------------------------|---------------------------|-
E-|---------------------------|---------------------------|-


e-|---------------------------|-----------------------------|-
B-|---------------------------|-----------------------------|-
G-|--5------------------------|--8------------10------------|-
D-|--5------------------------|--8------------10------------|-
A-|--3------------------------|--6-------------8------------|-
E-|---------------------------|-----------------------------|-




e-|--8\\-----------------------|--8\\-----------------------|-
B-|--8\\------------6--5--(5)--|--8\\------------6--5--(5)--|-
G-|--6\\------------5--5--(5)--|--6\\------------5--5--(5)--|-
D-|--7\\------------5--5--(5)--|--7\\------------5--5--(5)--|-
A-|---------------------------|---------------------------|-
E-|---------------------------|---------------------------|-


e-|---------------------------|-----------------------------|-
B-|---------------------------|-----------------------------|-
G-|--5------------------------|--8------------10------------|-
D-|--5------------------------|--8------------10------------|-
A-|--3------------------------|--6-------------8------------|-
E-|---------------------------|-----------------------------|-




e-|--8\\-----------------------|--8\\-----------------------|-
B-|--8\\------------6--5--(5)--|--8\\------------6--5--(5)--|-
G-|--6\\------------5--5--(5)--|--6\\------------5--5--(5)--|-
D-|--7\\------------5--5--(5)--|--7\\------------5--5--(5)--|-
A-|---------------------------|---------------------------|-
E-|---------------------------|---------------------------|-


e-|---------------------------|-----------------------------|-
B-|---------------------------|-----------------------------|-
G-|--5------------------------|--8------------10------------|-
D-|--5------------------------|--8------------10------------|-
A-|--3------------------------|--6-------------8------------|-
E-|---------------------------|-----------------------------|-




e-|--8\\-----------------------|--8\\-----------------------|-
B-|--8\\------------6--5--(5)--|--8\\------------6--5--(5)--|-
G-|--6\\------------5--5--(5)--|--6\\------------5--5--(5)--|-
D-|--7\\------------5--5--(5)--|--7\\------------5--5--(5)--|-
A-|---------------------------|---------------------------|-
E-|---------------------------|---------------------------|-


e-|---------------------------|-----------------------------|-
B-|---------------------------|-----------------------------|-
G-|--5------------------------|--8------------10------------|-
D-|--5------------------------|--8------------10------------|-
A-|--3------------------------|--6-------------8------------|-
E-|---------------------------|-----------------------------|-




e-|--8\\-----------------------|--8\\-----------------------|-
B-|--8\\------------6--5--(5)--|--8\\------------6--5--(5)--|-
G-|--6\\------------5--5--(5)--|--6\\------------5--5--(5)--|-
D-|--7\\------------5--5--(5)--|--7\\------------5--5--(5)--|-
A-|---------------------------|---------------------------|-
E-|---------------------------|---------------------------|-


e-|---------------------------|-----------------------------|-
B-|---------------------------|-----------------------------|-
G-|--5------------------------|--8------------10------------|-
D-|--5------------------------|--8------------10------------|-
A-|--3------------------------|--6-------------8------------|-
E-|---------------------------|-----------------------------|-



     5:25
e-|--------------------------|-----------------------------|-
B-|--------------------------|-----------------------------|-
G-|--5-----------------------|--(5)------------------------|-
D-|--5-----------------------|--(5)------------------------|-
A-|--3-----------------------|--(3)------------------------|-
E-|--------------------------|-----------------------------|-


e-|--------------------------|-----------------------------|-
B-|--------------------------|-----------------------------|-
G-|--(5)---------------------|--(5)------------------------|-
D-|--(5)---------------------|--(5)------------------------|-
A-|--(3)---------------------|--(3)------------------------|-


Important: The song above is NOT stored on the Chordie server. The original song is hosted at www.xguitar.com. Chordie works as a search engine and provides on-the-fly formatting. Chordie does not index songs against artists'/composers' will. To remove this song please click here.

This song is displayed as text-only. Transposing and tuning is only available for chordpro-songs.

Login - add to songbook

Rating click stars to rate

Layout
Accuracy

SHARE PAGE  




You need to log in to post comments