Three Days

Jane's Addiction

G---------4--4--0h2p0---0h2p0-----------------------------

D--------------------4-------4----------------------------
A-0h2-2-2-----------------------0h2-2-2-2--2-2------------
E----------------------------------------------3--3--2--2-
E--------------------|-------------------0-|
B-------------3P2----|-------------3P2-----|
G-----0-----2-----2--|-----0-----2-----2---|
D---4---4-0----------|---4---4-0-----------|
A-2------------------|-2-------------------|
E--------------------|---------------------|
E--------------------5----
B-2--3-2--5--3-2----3-----
G----------------2--------
D-------------------------
A-------------------------
E-------------------------
E---------------|---------|-----------------|-----------
B-4-4-4-4-2-2-2-|-4-4-----|-2-2-2-4-4-4-4-4-|-----------
G-4-4-4-4-2-2-2-|-4-4-----|-2-2-2-4-4-4-4-4-|-----------
D-4-4-4-4-2-2-2-|-4-4-----|-2-2-2-4-4-4-4-4-|-5-5-------
A-2-2-2-2-0-0-0-|-2-2-----|-0-0-0-2-2-2-2-2-|-5-5-------
E---------------|---------|-----------------|-3-3-------
G------2---2-|---------4--4--0h2p0-0h2p0-0h2p0--|-----------|---------
D--------4---|--------------------4-----4-----4-|-----------|---------
A-2-2--------|-0h2-2-2--------------------------|-0-0---2-2-|---------
E------------|----------------------------------|-----------|-3-3---2-
E-------------------------------------------------------7-----
B-7-7-7-7-5-5-5-5-9-9-9-9-5-5-5-5--7-7-7-5-5-5-5-7-----7-7----
G-8-8-8-8-6-6-6-6-9-9-9-9-6-6-6-6--8-8-8-6-6-6-6-8----8---8---
D-9-9-9-9-7-7-7-7-9-9-9-9-7-7-7-7--9-9-9-7-7-7-7-9---9-----9--
A-9-9-9-9-7-7-7-7-7-7-7-7-7-7-7-7--9-9-9-7-7-7-7-9--9-------9-
E-7-7-7-7-5-5-5-5---------5-5-5-5--7-7-7-5-5-5-5-7------------
E-----7--7----5-------12----12-----------12----------7--7----5---
B----7-7-----5-5--------12----12-------14--14-------7-7-----5-5--
G---8---8---6---6---13----13----13---14------14----8---8---6---6-
D--9-------7------14---------------14-------------9-------7------
A-9----------------------------------------------9---------------
E----------------------------------------------------------------

 EADGBEandEADGBEEADGBE
 022100                   022032  x24232   )

Yes, I do play the solo, but I'm not going to tab it out. I know parts, but
not all of it. I just fake what I don't know. Maybe someday... :)

Fill 1:
E------------------|
B------------------|
G------------------|There are some other fills in here that I haven't
D------------------|learned yet.  Sorry.
A--(2)-(2)-(2)-(2)-|
E---0---0---0---0--|


Ok. From here on in, there will be two different guitar parts.

Guitar 1: Guitar 2:
E------------------------------||----------------------------------
B------------------------------||---------9-9-9-9-9-9--------------
G------------------------------||---------9-9-9-9-9-9--------------
D-4-2--------------------------||-9-7-4/5-9-9-9-9-9-9--------------
A-2-0-4/5-2--2-2-2-2-2-2-2-2-2-||-9-7-4/5-7-7-7-7-7-7--------------
E-----2/3-0--0-0-0-0-0-0-0-0-0-||-7-5-2/3--------------------------
E-3-3--5-5-------------------
B-5-5--7-7-------------------
G-5-5--7-7-------------------
D-5-5--7-7-------------------
A-3-3--5-5-------------------
E-----------0-0-0-0-0-0-0-0--


Strange part:
E-------------------------------------------------------------------------
B-------------------------------------------------------------------------
G-------------------------------------------------------------------------
D-2/4--4-4-4-4-5-4-2/4--4-4-2-4-5/7-0/4--4-4-4-4-5-4-5-5/7----------------
A-------------------------------------------------------------------------
E----------------------------------------------------------------0-0-0-0--


"one, two, three, four"
E-7-7-7-7--7-7-8-8--7-7-7-7--7-7-8-8--3-3-5-5--
B-9-9-9-9--9-9-9-9--9-9-9-9--9-9-9-9--5-5-7-7--
G-9-9-9-9--9-9-9-9--9-9-9-9--9-9-9-9--5-5-7-7--
D-9-9-9-9--9-9-9-9--9-9-9-9--9-9-9-9--5-5-7-7--
A-7-7-7-7--7-7-7-7--7-7-7-7--7-7-7-7--3-3-5-7--
E----------------------------------------------


Ending
E-----------------------
B---------5--5------0---
G-6---7p6------6----1---
D-7--------------7--2---
A-7-----------------2---
E-5-----------------0---


Well, it's certainly not everything, but it corrects some things that I
thought were wrong about the previous post. Again, any corrections or
comments, please e-mail me.

+++++++++++++++++++++++++++++++++++++++++++++++++++++++++++++++++++++++++++++ \\\\Y|M| ******************** "There aren't any stupid questions, +
+ ~~..'~ * Brian Reilly * just ones that everyone else knows +
+ ( \\ ) * bpr2@lehigh.edu * the answer to." +
+ \\ =/ * Computer Science * -BPR +
+ _\\/_ ******************** +
+ / -_ +

From: GLove1012@aol.com
Date: Wed, 12 Jun 1996 18:28:04 -0400

Three Days
Jane's Addiction: "Ritual de lo Habitual"
Transcribed: Jim Harney 5/29/96
Email: "GLove_1012@aol.com"

At this moment you should be with us...

Three days was the morning. My focus was three days old.
My head, it landed to the sounds of cricket bows.
I am a proud man anyway. Covered now by three days.

Three ways was the morning. Three lovers in three ways.
We knew when she landed, three days she'd stay.
I am a proud man anyway. Covered now by three days.

We saw shadows of the morning light the shadows of the evening sun
till the shadows and the lights were one.
Shadows of the morning light the shadows of the evening sun
till the shadows and the lights were one.

True hunting is over. No herds to follow.
Without game, men prey on each other.
The family weakens by the bite we swallow.

True leaders are gone. of land and people.
We choose no kin but adopted strangers.
The family weakens by the lengths we travel.

All of us with wings! (six times)

Erotic Jesus lays with his Marys. Loves his Marys.
Bits of puzzle, fitting each other. All now with wings!
"Oh my Marys! Never wonder. Night is shelter for nudity's shiver."
All now with wings.

Three days...
B? D? B? D?
-------------------------------------------------0-------------------
--------------3\\2------------------------3\\2-------------------------
------0-----2-----2--------------0-----2-----2-----------------------
----4---4-0---------4----------4---4-0---------4---------------------
--2--------------------------2---------------------------------------
---------------------------------------------------------------------


Three days...
----------4-4--------------------------------------------------------
--------------5/7\\4-5/7\\4--------------------------------------------
--0/2-2-2--------------------0/2-2-2-2-2-----------------------------
-----------------------------------------3-3-2-----------------------


True hunting...
---------------------------------------------------------------------
--------2---------------2--------------------------------------------
----2-5-----2-5-2---2-5-----2-5-2------------------------------------
--0-------0-------0-------0------------------------------------------


Erotic Jesus...
 BAGEEEEEEEE
--7--5--3--0---------------------------------------------------------
--7--5--3--0---------------------------------------------------------
--8--6--4--1-------------------9------9-----9------------------------
--9--7--5--2------2-----2------9------9-----9-----2-----2------------
--9--7--5--2------2-----2------7------7-----7-----2-----2------------
--7--5--3--0------0-----0------0------0-----0-----0-----0------------



A B E G
variations - click chord images
Transpose chords:
Tuning:
Cool service:
View: Size:
A  A  A
Rating:
Layout:
  • Currently 3.4/5 Stars.
  • 1
  • 2
  • 3
  • 4
  • 5
 
Accuracy:
  • Currently 2.3/5 Stars.
  • 1
  • 2
  • 3
  • 4
  • 5
 
click stars to rate
Chordie recommends:
Learn to play songs at Jamplay.com with video guitar lessons
Songbook:
Login to add this song to your songbook
Support the artist
Preview/buy this song
MSN Music
Why this non-profit ad?

 
login to add comments/video/corrections