Guitar Tabs, Chords and Lyrics
Major upgrade!! After one year development the new version of Chordie is now online! Please give feedback.


Suspension  Jeff Beck

Title : Suspension
Author : Jeff Beck
Duration : 03:20 min
Transcribed by Branislav Stojkovic (stormbringer@mail.com)
chords explanation
E|--[Dm]10--|
B|--10--|
G|--10--|
D|--12--|
A|--12--|
E|--10--|
tabs explanation
/ - slide up
\ - slide down
~ - vibrato
() - ghost note
() - played on bass
p - pull-off
h - hammer-on
00:00
[Dm] [Dm]  
 
 E|----------------------------------------------------
 B|-----------10-----------10-11-13-11-10--------------
 G|--------10-----------10----------------12-10--------
 D|-----12-----------12-------------------------12-10~~
 A|----------------------------------------------------
 E|-[10]---------[10]----------------------------------

00:11
[Dm] [Dm]  
 
 E|----------------------------------------------------
 B|-----------10-----------10-11-13-11-10--------------
 G|--------10-----------10----------------12-10--------
 D|-----12-----------12-------------------------12-10~~
 A|----------------------------------------------------
 E|-[10]---------[10]----------------------------------

00:22
[Dm]  
 
 E|--------13----12----10--------13----15----12----13---------13----15--
 B|------10----10----10-----10-11----11----10----10------10-11----10----
 G|----10---------------------------------------------------------------
 D|--12-----------------------------------------------------------------
 A|---------------------------------------------------------------------
 E|---------------------------------------------------------------------

00:34
 
 E|-----12----13--13----12-10--13----12-10-----------------13----12-10--
 B|--10----10--------11-----------11-------13-11-10~~---------11--------
 G|--------------------------------------------------10~~---------------
 D|---------------------------------------------------------------------
 A|---------------------------------------------------------------------
 E|---------------------------------------------------------------------

00:51
[Dm]  
 
 E|--13----12-10------------------13------------------------------------
 B|-----11-------13-11-10~~----10----13-10-13-11-10---------/13~~-10~~--
 G|---------------------------10--------------------10-(7)--------------
 D|--------------------------12-----------------------------------------
 A|---------------------------------------------------------------------
 E|---------------------------------------------------------------------

01:07
[Dm]  
 
 E|---------------------------------------------------------------------
 B|------------------------------------------------------------10-13~---
 G|--12-10----10~~-9-------------------10\9-------------------10--------
 D|--------12--------10-7~~---------12-------10--------------12---------
 A|-------------------------~-------------------12~~--------------------
 E|---------------------------------------------------------------------

01:27
[Dm] [Dm] [Dm]  
 
 E|--------------------------13-----------------------------------------
 B|--11----10~~---10-13~-11-----10~~----10-13~-11----10~~---10-13~-11---
 G|-----10-------10--------------------10---------10-------10-----------
 D|-------------12--------------------12------------------12------------
 A|---------------------------------------------------------------------
 E|---------------------------------------------------------------------

01:44
 
 E|--13-------
 B|-----10~~--
 G|-----------
 D|-----------
 A|-----------
 E|-----------

01:47
[Dm]  
 
 E|--------13----15----12----13---------13----15----12----13--------13-
 B|--10-11----11----10----10------10-11----10----10----10-----10-11----
 G|--------------------------------------------------------------------
 D|--------------------------------------------------------------------
 A|--------------------------------------------------------------------
 E|--------------------------------------------------------------------

02:00
 
 E|-----15----12----13---13----12-10----12-10--------------13----12-10--
 B|--10----10----10---------11-------11-------13-11-10--------11--------
 G|----------------------------------------------------10~~-------------
 D|---------------------------------------------------------------------
 A|---------------------------------------------------------------------
 E|---------------------------------------------------------------------

02:18
[Dm]  
 
 E|--13----12-10------------------13------------------------------------
 B|-----11-------13-11-10------10----13-10-13-11-10---------/13~~-10~~--
 G|---------------------------10--------------------10-(7)--------------
 D|--------------------------12-----------------------------------------
 A|---------------------------------------------------------------------
 E|---------------------------------------------------------------------

02:34
 
 E|---------------------------------------------------------------------
 B|-----------------------------------------------------------------~---
 G|--12-10----10~~-9-------------------10\9-----------------------------
 D|--------12--------10-7~~---------12-------10-------------------------
 A|-------------------------~-------------------12~~--------------------
 E|---------------------------------------------------------------------

02:45
 
 E|---------------------------------------------------------------------
 B|---------------------------------------------------------------------
 G|--12-10~~-----12-10~~-----12-10~~-----12--10~~-----12-10~~-----------
 D|---------------------------------------------------------------------
 A|---------------------------------------------------------------------
 E|---------------------------------------------------------------------

02:55
 
 E|---------------------------------------------------------------------
 B|---------------------------------------------------------------------
 G|--12-10~~-----12-10~~-----12-10~~-----12--10~~-----12-10~~-----------
 D|---------------------------------------------------------------------
 A|---------------------------------------------------------------------
 E|---------------------------------------------------------------------


Important: The song above is NOT stored on the Chordie server. The original song is hosted at www.xguitar.com. Chordie works as a search engine and provides on-the-fly formatting. Chordie does not index songs against artists'/composers' will. To remove this song please click here.

Text color:
Chord color:
Chord grids: 
Font size:    
Page size: 

Dm
Rate #2 of 4 versions

Jango Player

Login - add to songbook

SHARE PAGE  




You need to log in to post comments