eToCache5 = ""; ?> Amen by Jewel - guitar chords, guitar tabs and lyrics - chordie

Amen

Jewel

 Bm7Bm7/ABm7/G
   Rhy. Fig. 1*******************************************************
E----------------------------|------------------------------------|-|
B---------0-----------0------|---------0-------------0------------|-|
G-------0---0-------0---0----|-------0---0---------0---0--------*-|-|
D-----0-------0---0-------0--|-----0-------0-----0-------0------*-|-|
A---2-----------0------------|------------------------------------|-|
E----------------------------|--5-------------5-------------------|-|


Verse: (w/rhy. Fig. 1)

 Bm7Bm7/ABm7/GBm7Bm7/ABm7/G
1. Your  mother's   child.  But night lays   you   down.

 Bm7Bm7/ABm7/GBm7Bm7/ABm7/G
    Hair a-flame, wild look in your eyes.  Naked belly to the ground.

 Bm7Bm7/ABm7/GBm7Bm7/ABm7/G
    A forest    fire    nibbles at your veins,

 Bm7Bm7/ABm7/GBm7Bm7/ABm7/G
 Crawls up your arm runs away with your mind and burns dry thoughts like leaves.

Chorus:
To Coda&&
 BmBsus2BmBsus2D7/C
E--------------------------|-------------------------|----------------
B--5-----5-----5-----5-----|-4-----4-----5-----4-----|---0----0---0--0
G----0-----0-----0-----0---|---0-----0-----0-----0---|--0----0---0--0-
D------4-----4-----4-----4-|-----4-----4-----4-----4-|----------------
A--2-----2-----2-----2-----|-2-----2-----2-----2-----|-3----3---3--3--
E--------------------------|-------------------------|----------------

A men.
__________________________ ______________________
|1. ||2.
B7 D.C. al Coda
-----------------1--------|------------------1---||
----0----0----0-------0---|----0-----0-----0----0||
--0----0----0-------0---*-|--0-----0-----0-----0-||
------------------------*-|----------------------||
2----2----2-------2-------|-2-----2-----2-----2--||
--------------------------|----------------------||


Coda&&
 B7Bm
|-1-----1-----1-----0----||
|-----0-----0-----0------||
|---0-----0-----0-----0--||
|------------------------||
|-2-----2-----2-----2----||
|------------------------||


 BmBsus2D9/C
---------------------------------------------------2----------2-------
-5---5---5---5---5-5---5--4---4---4---4---4---4--------0----0---0---0-
---0-------0---0-----0------0-------0---0-------0----0----0----0---0--
----------------------------------------------------------------------
-2-----2-----2-----2------2-----2-----2-----2------3----3-----3---3---
----------------------------------------------------------------------

A men.

 B7F#mFm
-1-----------1-----1-----------------------------------------------3--
-----0-----0-----0-----0-----4---4-------4---4-------3---3-------3----
---0-----0-----0-----0-----3-------3---3-------3---2-------2---2-----X
-------------------------4-----4-----4-----4-----3-----3-----3------X-
-2-----2-----2-----2--------------------------------------------------
----------------------------------------------------------------------

A men.

 AbmGmG
-------6-----------6-----------5----------5----------5---------5------
-----6---6-------6---6-------5---5------5---5------5---5------5--5----
---5-------5---5-------5---4-------4--4-------0--5-------5--5-----5---
-6-----------6-----------5-----------5----------5----------5-------5--
----------------------------------------------------------------------
----------------------------------------------------------------------

A men.

 DG/DD
-------0-----------0-----------5-----------5---------0----------0-----
-----0---0-------0---0-------5---5-------5---5-----0---0------0---0---
---0-------0---0-------0---5-------5---5-------5--0-----0---0-------0-
-0-----------------------5-----------5-----------0--------------------
----------------------------------------------------------------------
-------------0--------------------------------------------0-----------

Hal - le - lu - jah.

 G/DD
-------5-----------5-----------0--------------------------------------
-----5---5-------5---5-------0---0------------------------------------
---5-------5---5-------5---0-------0----------------------------------
-5-----------5-----------0--------------------------------------------
--------------------------------------0-------------------------------
----------------------------------------0---------(0)-----------------

Hal - le - lu - jah.

verse 2:

Eyes stare up, but something's in the way.
In the Bible, only angels have wings
And the rest must wait to be saved.
A dry tounge screams at the sky
But the wind just breathes words in
As a strange bird tries to fly.
(to chorus:)

Verse 3:

Pieces of us die everyday
As though our flesh were hell.
Such an injustice, as children we were told
That from God we fell.
Whare are my angels?
Where's my golden one?
Where is my hope now that my heroes have gone?
Some are being beaten, some are being born.
And some can't tell the difference anymore.
(to chorus:)


Abm B7 Bm Bm7 Bm7/A Bm7/G Bsus2 D D7/C F#m Fm G G/D Gm
variations - click chord images
Transpose chords:
Tuning:
Cool service:
View: Size:
A  A  A
Rating:
Layout:
  • Currently 2.5/5 Stars.
  • 1
  • 2
  • 3
  • 4
  • 5
 
Accuracy:
  • Currently 3.3/5 Stars.
  • 1
  • 2
  • 3
  • 4
  • 5
 
click stars to rate
Chordie recommends:
Get acoustic guitar lessons and electric guitar lessons at JamPlay.com
Songbook:
Login to add this song to your songbook
Support the artist
Preview/buy this song
MSN Music
Why this non-profit ad?

 
login to add comments/video/corrections