Chordie logo

Little Sister    Jewel









Date: Fri, 10 Oct 1997 11:15:34 +0100
From: Sam Hollis
Subject: little sister by Jewel


   Little Sister
     By Jewel

Intro:
E------------2--------0h2--------2p0------------------------
B------3--------3----------3----------3-----3-----3---------
G---------2--------2----------2----------2-----------2------
D---0------------------------------------------0------------
A-----------------------------------------------------------
E-----------------------------------------------------------

E---2--------0h2--------2p0---------------------------------
B------3----------3----------3-----3-----------0------------
G---------2----------2----------2--------0--------0---------
D-------------------------------------------2--------2------
A-------------------------------------3---------------------
E-----------------------------------------------------------

E---0--------------------------3--------3--------3----------
B------------0--------------------3--------3--------3-------
G------0--------0--------0-----------0--------0--------0----
D---------2--------2--------0-------------------------------
A-----------------------------------------------------------
E---------------------3-------------------------------------

Continue picking throughout rest of tune

Hey little sister I heard you went to mister so-on-so
knock, knock, knocking on his door again last night
said you needed it bad you know that ain't right
There's so many times you've come to me cry crying
trying to stop you said it hurts so bad but please don't let you
go back for more

My little sister is a zombie in a body
With no Soul at all she has learned to play
in a world today where nothing else matters
But it matters got to start feeding
our souls and our addictions or afflictions of pain
to avoid the same questions we must ask ourselves to get any answers
Got to start feeding

Our souls have been lost to the millions of???
who feed off addictions sellings pills and whats hot
and I wish I could stay but from all their delutions
all the confusions yeah yeah
of a nation that starves for salvation
but clothing is the closest approxamation
the God and he only knows that drugs are only no where love

Everyday we starve while we eat white bread and a beer
instead of a handshake or hug
 we fill the pills and sweep them under the rug
My little sisters a zombie in a body with no soul she has
learned to play in a world today where nothing else matters
but it matters got to start feeding our so----u-----ls

Hey little sister I heard you went to mister so-on-so
knock, knock, knocking on his door again last night
said you needed More



tabbed by Sam Hollis
Sam Hollis -ELA96SMH@Sheffield.ac.uk

"The story of life is quicker than the blink of an eye,
The story of love is just hello and goodbye,


Important: The song above is NOT stored on the Chordie server. The original song is hosted at www.xguitar.com. Chordie works as a search engine and provides on-the-fly formatting. Chordie does not index songs against artists/composers will. To remove this song please click here.

This song is displayed as text-only. Transposing and tuning is only available for chordpro-songs.

Login - add to songbook

Rating click stars to rate

Layout
Accuracy

SHARE PAGE  

You need to log in to post comments