Angel

Jimi Hendrix

---0---0----0----0----0----0---|--2-----6-------4--------------------

---7---5----7---12---14----5---|--2-----6---4-7-4--------------------

---4---2----4----9---11----2---|--3-----6-------4-------------4---4--

---6---4----6---11---13----4---|--4-----6-------6--6--4-------4-6-4--

---6---4----6---11---13----4---|--4-----4-------6-------6-5-4--------

---0---0----0----0----0----0---|--2-------------4--------------------


 BEC#BC#BDF#
-----------2--0----4---4----6---6-------------||---------------------

-----------4--0---------------------6---4---6-||--4---7-7------------
-----------4--1--4---4----6---6-----6---4---6-||--4---7-6------------
-----------4--2---------------------6---4---6-||--4---7-4--4-6-4-----
-6-5-4---2-2------------------------4---4---4-||--2---5-4--------6--4
--------------0-------------------------------||---------------------
Chorus
 G#A#BBsusEF#m7CADD#E
--4--------6--------7--7--|--0---0-----------------

--4-7-4----6-9-6----7--7--|--0---5--5--2---7--8--9-
--4--------6--------8--9--|--1---2--5--2---7--8--9-
--6-----6--8-----8--9--9--|--2---4--5--2---7--8--9-
--6--------8--------9--9--|--2---4--3--0---5--6--7-----7-9-11-9-7-
--4--------6--------7--7--|--0---0-----------------7-9------------
Lyrics:
 F#C#G#m
 Angel came down from heaven yesterday 
 BE
 Stayed with me just long enough to rescue me....
 F#C#G#m
 And she told me a story yesterday
 BE
 About the sweet love between the moon and the deep blue sea
 BDF#
 The she spread her wings high over me....she said
 G#mA#m
 I'll come back again to see you tomorrow
 BBsus
       And I said
Chorus:
 EF#m7
 Fly on my sweet angel
 CADD#E
 Fly on through the sky
 EF#m7
 Fly on my sweet angel
 CADD#E
 Tomorrow I'm 'gonna be by your side

 ED#DC#CADD#
                                                                               
 EF#m7/EG6/EF#m7/EF#m7/E
                                                                                  

Sure enough to this woman came home to me
Silver wings silhouetted against a child's sunrise
And my angel she said unto me
today is the day for you to rise
Take my hand come you're gonna be my man
and she took me high over yonder
(Chorus)


Corrected by mojo78. View original
A A# A#m B Bsus C C# D D# E F# F#m7 F#m7/E G# G#m G6/E
variations - click chord images
Transpose chords:
Tuning:
Cool service:
View: Size:
A  A  A
Rating:
Layout:
  • Currently 4.2/5 Stars.
  • 1
  • 2
  • 3
  • 4
  • 5
 
Accuracy:
  • Currently 3/5 Stars.
  • 1
  • 2
  • 3
  • 4
  • 5
 
click stars to rate
Chordie recommends:
Learn to play this song & others via video guitar lessons at JamPlay.com
Songbook:
Login to add this song to your songbook
Support the artist
Preview/buy this song
MSN Music
Why this non-profit ad?

 
login to add comments/video/corrections

drofla (report comment to admin):
I cahnged the C#6 to C#. I also added the turn around that takes you back to the verse. It's a bit like the intro but there's a G6/E chord added.