Chordie logo


Dolly Dagger   Jimi Hendrix



DOLLY DAGGER BY JIMI HENDRIX
transcribed by Maxxdaddy
Intro:
--------------------------------------
------------------------------------7-
-9/11-7-9---------------------------7-
-----------7~--/11-7-9----------------
-----------------------9~---9-8-7-----
----------------------------------7---

Chorus:
  2x
||-7----------------------------------------------------||
||-7---7------------9-----------------------------------||
||-8---9(11)9p7-----9---7~------------------------------||
||-9------------9--------------------------------7-8-9~-||
||-9-------------------------7-8-9------5-7-8-9---------||
||-7--------------------------------5-7-----------------||

intro variation:
-----------------------------------
-----------------------------------
-----------------------------------
-----------------------------------
-/9-5-7-----4-0-2------------2-5~--
--------5~--------2~---2-1-0-------

Verse:
   
||-7--7--7--7---11--11--11--11---14--14--14--14---------------||
||-7--7--7--7---10--10--10--10---14--14--14--14---------------||
||-8--8--8--8---11--11--11--11---14--14--14--14---------------||
||-9--9--9--9--------------------13--13--13--13-------7---7-9-||
||-------------------------------14--14--14--14---7/9---9-----||
||------------------------------------------------------------||

(Jimi plays variations on the verse progression,
somtimes replacing -11- with ---)
                   -10-      -7-
                   -11-      -6-
                   ----      -7-
                   ----      ---
                   ----      ---

Solo:
--------------------------------------7-----------7------
-10(12)~10--------------------------7---10-10(12)---10-7-
-----------9(11)~9--9(11)9-7~--9(11)---------------------
---------------------------------------------------------
---------------------------------------------------------
---------------------------------------------------------

-----------------------------------------------------------12-10(11)-
-------7-------------------------------------------9-10/12-----------
-9(11)---(11)9-7~---9(11)(12)--9(11)-9-7-----9(11)-------------------
------------------9----------------------9-7-------------------------
---------------------------------------------------------------------
---------------------------------------------------------------------

-12(14)-12(14)-12(14)-12(14)-12(14)-12(14)-10----
----------------------------------------------12-
-------------------------------------------------
-------------------------------------------------
-------------------------------------------------
-------------------------------------------------

--------------------------------------------------------
-12-10p7-------7---7------7-----------------------------
---------9(11)---9---9(11)--(11)9-7---------------------
------------------------------------9-7--9p7------------
---------------------------------------------9p8p7------
---------------------------------------------------10-7-

---------------------12(14)-12(14)-12(14)-10-12--------
-------------7-10/12----------------------------10-/12-
---------7h9-------------------------------------------
-----7h9-----------------------------------------------
-7h9---------------------------------------------------
-------------------------------------------------------

-16(18)-16(18)16\-------------------------7---------------
----------------------------------------7---10p7----------
-------------------7(8)~--------9--9(11)---------9(11)-7~-
-------------------------9p7------------------------------
-----------------------------9----------------------------
----------------------------------------------------------

---------------
---------------
-9--7----------
------9-7---9~-
----------9----
---------------

Verse

Bridge:

guitar 1 and bass:
   5x
||--------------------------||
||--------------------------||
||--------------------------||
||----------------5-5-7p5---||
||-/9-5-7-----5h7---------7-||
||--------5~----------------||

guitar 2:
-------------------------------7-------------------------------
-------7--------------------------12--12(14)12-10h12p10--------
-9(11)---9(11)9p7---7~---9(11)--------------------------11\9-7-
------------------9--------------------------------------------
---------------------------------------------------------------
---------------------------------------------------------------

----------------------12(14)-12-10h12p10-------------
-----10--12---12(14)~--------------------12-10-12-10-
-/11-------------------------------------------------
-----------------------------------------------------
-----------------------------------------------------
-----------------------------------------------------

------------------------------------------------
-----10--12--12(14)~-(14)-12-10-----------------
-/11-----------------------------9(11)-9(11)-7~-
------------------------------------------------
------------------------------------------------
------------------------------------------------

outro:

guitar 1: 

----
-15-
-14-
-13-
-14-
----

guitar 2 solos on 19th fret, fade out
Lyrics:

Chorus:
           B
DOLLY DAGGER
HERE COMES, DOLLY DAGGER
HER LOVE SO HEAVY GONNA MAKE YOU STAGGER
DOLLY DAGGER
SHE DRINKS THE BLOOD FROM A JAGGED EDGE
AH, DRINK UP BABY

BEEN RIDIN' BROOMSICKS SINCE SHE WAS FIFTEEN
BLOW OUT ALL THE OTHER WITCHES ON THE SCENE
SHE GOT A BULL WHIP JUST AS LONG AS YOUR LIFE
HER TONG CAN EVEN SCRATCH THE SOUL OUT OF THE DEVIL'S WIFE

WELL, I SEEN HER IN ACTION AT THE PLAYERS CHOICE
TURN ALL THE LOVE MEN INTO DONUT BOYS
HEY RED HOT MOMMA, YOU'D BETTER STEP ASIDE
THIS CHICK'S GONNA TURN YOU TO A BLOCK OF ICE
LOOK OUT

HERE COMES, DOLLY DAGGER
HER LOVE SO HEAVY GONNA MAKE YOU STAGGER BABY
DOLLY DAGGER
SHE DRINKS THE BLOOD FROM A JAGGED EDGE
RIGHT ON
DRINK UP BABY
HEY!

YEAH, LOOK AT OLD BURNT OUT SUPERMAN
TRYIN' TO SHOOT HIS DUST ON THE SUN
CAPTAIN COMIC IS THE MAN ON THE RUN
ON THE WORDS OF LOVE
DO THEY EVER TOUCH DOLLY BROWN
BETTER GET IN SOME HIGHWAY AND CLEAR OUTTA TOWN

HERE COMES DOLLY DAGGER
HER LOVE'S SO HEAVY, GONNA MAKE YOU STAGGER
DOLLY DAGGER
SHE AIN'T SATISFIED 'TIL SHE GET WHAT SHE'S AFTER
SHE DRINKS THE BLOOD FROM THE JAGGED EDGE
LOOK OUT BABY HERE COMES YOUR MASTER
ALRIGHT
WATCH OUT THERE BABY
GONNA GIVE A LITTLE BIT OF THAT 

DOLLY HEAVY MAMA
GET IT ON GET IT ON GET IT ON

ETC.



Important: The song above is NOT stored on the Chordie server. The original song is hosted at www.xguitar.com. Chordie works as a search engine and provides on-the-fly formatting. Chordie does not index songs against artists/composers will. To remove this song please click here.

This song is displayed as text-only. Transposing and tuning is only available for chordpro-songs.

Login - add to songbook

Rating click stars to rate

Layout
Accuracy

SHARE PAGE  




You need to log in to post comments