Guitar Tabs, Chords and Lyrics


Half Three   Jj72



Tuning - E
Album - I To Sky
Writer - Mark Greenay ( did a good job )

INTRO - OVERDRIVE

E------------------------------------------------------------------------------------
B------------------------------------------2-2-2-2-2---------------------------------
G-11-11-11-9-9-9-9-7-7-7-6-6-6-6-4-4-4-4-4-2-2-2-2-2-11-11-11-9-9-9-9-7-7-7-6-6-6-6-4
D-X--X--X--X-X-X-X-X-X-X-X-X-X-X-X-X-X-X-X-2-2-2-2-2-X--X--X--X-X-X-X-X-X-X-X-X-X-X-X
A-9--9--9--7-7-7-7-5-5-5-4-4-4-4-2-2-2-2-2-----------9--9--9--7-7-7-7-5-5-5-4-4-4-4-2
E------------------------------------------------------------------------------------

E------------------
B------------------
G-4-4-4-4-6-6-6-6--
D-X-X-X-X-X-X-X-X--
A-2-2-2-2-4-4-4-4--
E------------------

VERSE 1

E------------------3-3-3-3-3------------------ 3-3-3-3-3-------------------3-3-3-3-3
B------------------3-3-3-3-3-------------------3-3-3-3-3-------------------3-3-3-3-3
G-7-7--6-6---------0-0-0-0-0--7-7--6-6---------0-0-0-0-0--7-7--6-6---------0-0-0-0-0
D-7-7--6-6--5-5----0-0-0-0-2--7-7--6-6--5-5----0-0-0-0-2--7-7--6-6--5-5----0-0-0-0-2
A-5-5--4-4--5-5----2-2-0-0-2--5-5--4-4--5-5----2-2-0-0-2--5-5--4-4--5-5----2-2-0-0-2
E-----------3-3----3-3-2-2-0------------3-3----3-3-2-2-0------------3-3----3-3-2-2-0

E------------------3-3-3-3-3
B------------------3-3-3-3-3
G-7-7--6-6---------0-0-0-0-0
D-7-7--6-6--5-5----0-0-0-0-2
A-5-5--4-4--5-5----2-2-0-0-2
E-----------5-5----3-3-2-2-0

ITERLUDE -OVERIDE
E------------------------------------------------------------------------------------
B------------------------------------------2-2-2-2-2---------------------------------
G-11-11-11-9-9-9-9-7-7-7-6-6-6-6-4-4-4-4-4-2-2-2-2-2-11-11-11-9-9-9-9-7-7-7-6-6-6-6-4
D-X--X--X--X-X-X-X-X-X-X-X-X-X-X-X-X-X-X-X-2-2-2-2-2-X--X--X--X-X-X-X-X-X-X-X-X-X-X-X
A-9--9--9--7-7-7-7-5-5-5-4-4-4-4-2-2-2-2-2-----------9--9--9--7-7-7-7-5-5-5-4-4-4-4-2
E------------------------------------------------------------------------------------

E------------------
B------------------
G-4-4-4-4-6-6-6-6--
D-X-X-X-X-X-X-X-X--
A-2-2-2-2-4-4-4-4--
E------------------

VERSE 2

E------------------3-3-3-3-3------------------ 3-3-3-3-3-------------------3-3-3-3-3
B------------------3-3-3-3-3-------------------3-3-3-3-3-------------------3-3-3-3-3
G-7-7--6-6---------0-0-0-0-0--7-7--6-6---------0-0-0-0-0--7-7--6-6---------0-0-0-0-0
D-7-7--6-6--5-5----0-0-0-0-2--7-7--6-6--5-5----0-0-0-0-2--7-7--6-6--5-5----0-0-0-0-2
A-5-5--4-4--5-5----2-2-0-0-2--5-5--4-4--5-5----2-2-0-0-2--5-5--4-4--5-5----2-2-0-0-2
E-----------3-3----3-3-2-2-0------------3-3----3-3-2-2-0------------3-3----3-3-2-2-0

E------------------3-3-3-3-3
B------------------3-3-3-3-3
G-7-7--6-6---------0-0-0-0-0
D-7-7--6-6--5-5----0-0-0-0-2
A-5-5--4-4--5-5----2-2-0-0-2
E-----------5-5----3-3-2-2-0

Build up - overide

E--------------------------------------------------------------------
B--------------------------------------------------------------------
G-9--11-11-11-11-9--11-11-11-11-9--11-11-11-11-9--11-11-11-11-12-11-9
D-X--X--X--X--X--X--X--X--X--X--X--X--X--X--X--X--X--X--X--X--X--X--X
A-7--9--9--9--9--7--9--9--9--9--7--9--9--9--9--7--9--9--9--9--10-9--7
E--------------------------------------------------------------------

Chorus - distortion - You'll get used to the way you have to play the chords.

E-5-5-5-5-5-5-5-5-5-5-5-5-5-5-5-5-4-4-4-4-4-4-4-4-4-4-4-4-4-4-4-7-7-7-7-7-7-7-7-7-7-7
B-6-6-6-6-6-6-6-6-6-6-6-6-6-6-6-6-5-5-5-5-5-5-5-5-5-5-5-5-5-5-5-7-7-7-7-7-7-7-7-7-7-7
G-7-7-7-7-7-7-7-7-7-7-7-7-7-7-7-7-6-6-6-6-6-6-6-6-6-6-6-6-6-6-6-8-8-8-8-8-8-8-8-8-8-8
D-7-7-7-7-7-7-7-7-7-7-7-7-7-7-7-7-6-6-6-6-6-6-6-6-6-6-6-6-6-6-6-9-9-9-9-9-9-9-9-9-9-9
A-5-5-5-5-5-5-5-5-5-5-5-5-5-5-5-5-4-4-4-4-4-4-4-4-4-4-4-4-4-4-4-9-9-9-9-9-9-9-9-9-9-9
E-5-5-5-5-5-5-5-5-5-5-5-5-5-5-5-5-4-4-4-4-4-4-4-4-4-4-4-4-4-4-4-7-7-7-7-7-7-7-7-7-7-7

E-7-7-7-7-5-5-5-5-5-5-5-5-5-5-5-5-5-5-5-5-5-5-5-5-5-5-5-5-5-5-5-5-5-5-4-4-4-4-4-4-4-4
B-7-7-7-7-5-5-5-5-5-5-5-5-5-5-5-5-5-5-5-6-6-6-6-6-6-6-6-6-6-6-6-6-6-6-5-5-5-5-5-5-5-5
G-8-8-8-8-6-6-6-6-6-6-6-6-6-6-6-6-6-6-6-7-7-7-7-7-7-7-7-7-7-7-7-7-7-7-6-6-6-6-6-6-6-6
D-9-9-9-9-7-7-7-7-7-7-7-7-7-7-7-7-7-7-7-7-7-7-7-7-7-7-7-7-7-7-7-7-7-7-6-6-6-6-6-6-6-6
A-9-9-9-9-7-7-7-7-7-7-7-7-7-7-7-7-7-7-7-5-5-5-5-5-5-5-5-5-5-5-5-5-5-5-4-4-4-4-4-4-4-4
E-7-7-7-7-5-5-5-5-5-5-5-5-5-5-5-5-5-5-5-5-5-5-5-5-5-5-5-5-5-5-5-5-5-5-4-4-4-4-4-4-4-4

E-4-4-4-4-4-4-4-3-3-3-3-3-3-3-3-3-3-3-3-3-3-3-5-5-5-5-5-5-5-5-5-5-5-5-5-5-5-
B-5-5-5-5-5-5-5-3-3-3-3-3-3-3-3-3-3-3-3-3-3-3-6-6-6-6-6-6-6-6-6-6-6-6-6-6-6-
G-6-6-6-6-6-6-6-4-4-4-4-4-4-4-4-4-4-4-4-4-4-4-7-7-7-7-7-7-7-7-7-7-7-7-7-7-7-
D-6-6-6-6-6-6-6-5-5-5-5-5-5-5-5-5-5-5-5-5-5-5-7-7-7-7-7-7-7-7-7-7-7-7-7-7-7-
A-4-4-4-4-4-4-4-5-5-5-5-5-5-5-5-5-5-5-5-5-5-5-5-5-5-5-5-5-5-5-5-5-5-5-5-5-5-
E-4-4-4-4-4-4-4-3-3-3-3-3-3-3-3-3-3-3-3-3-3-3-5-5-5-5-5-5-5-5-5-5-5-5-5-5-5-

OUTRO - OVERDRIVE

E------------------------------------------------------------------------------------
B------------------------------------------2-2-2-2-2---------------------------------
G-11-11-11-9-9-9-9-7-7-7-6-6-6-6-4-4-4-4-4-2-2-2-2-2-11-11-11-9-9-9-9-7-7-7-6-6-6-6-4
D-X--X--X--X-X-X-X-X-X-X-X-X-X-X-X-X-X-X-X-2-2-2-2-2-X--X--X--X-X-X-X-X-X-X-X-X-X-X-X
A-9--9--9--7-7-7-7-5-5-5-4-4-4-4-2-2-2-2-2-----------9--9--9--7-7-7-7-5-5-5-4-4-4-4-2
E------------------------------------------------------------------------------------

E------------------
B------------------
G-4-4-4-4-6-6-6-6--
D-X-X-X-X-X-X-X-X--
A-2-2-2-2-4-4-4-4--
E------------------

Verse 3

E------------------3-3-3-3-3------------------ 3-3-3-3-3-------------------3-3-3-3-3
B------------------3-3-3-3-3-------------------3-3-3-3-3-------------------3-3-3-3-3
G-7-7--6-6---------0-0-0-0-0--7-7--6-6---------0-0-0-0-0--7-7--6-6---------0-0-0-0-0
D-7-7--6-6--5-5----0-0-0-0-2--7-7--6-6--5-5----0-0-0-0-2--7-7--6-6--5-5----0-0-0-0-2
A-5-5--4-4--5-5----2-2-0-0-2--5-5--4-4--5-5----2-2-0-0-2--5-5--4-4--5-5----2-2-0-0-2
E-----------3-3----3-3-2-2-0------------3-3----3-3-2-2-0------------3-3----3-3-2-2-0

E------------------3-3-3-3-3
B------------------3-3-3-3-3
G-7-7--6-6---------0-0-0-0-0
D-7-7--6-6--5-5----0-0-0-0-2
A-5-5--4-4--5-5----2-2-0-0-2
E-----------5-5----3-3-2-2-0

Build up

E------------------------------------------------------------------------------------
B------------------------------------------------------------------------------------
G-9--11-11-11-11-9--11-11-11-11-9--11-11-11-11-9--11-11-11-11-12-11-9--9-11-11-11-11-
D-X--X--X--X--X--X--X--X--X--X--X--X--X--X--X--X--X--X--X--X--X--X--X--X-X--X--X--X--
A-7--9--9--9--9--7--9--9--9--9--7--9--9--9--9--7--9--9--9--9--10-9--7--7-9--9--9--9--
E------------------------------------------------------------------------------------

E---------------------------------------------------
B---------------------------------------------------
G-9--11-11-11-11-9-11-11-11-11-9-11-11-11-11-12-11-9
D-X--X--X--X--X--X-X--X--X--X--X-X--X--X--X--X--X--X
A-7--9--9--9--9--7-9--9--9--9--7-9--9--9--9--10-9--7
E---------------------------------------------------

CHORUS - DISTORTION
E-5-5-5-5-5-5-5-5-5-5-5-5-5-5-5-5-4-4-4-4-4-4-4-4-4-4-4-4-4-4-4-7-7-7-7-7-7-7-7-7-7-7
B-6-6-6-6-6-6-6-6-6-6-6-6-6-6-6-6-5-5-5-5-5-5-5-5-5-5-5-5-5-5-5-7-7-7-7-7-7-7-7-7-7-7
G-7-7-7-7-7-7-7-7-7-7-7-7-7-7-7-7-6-6-6-6-6-6-6-6-6-6-6-6-6-6-6-8-8-8-8-8-8-8-8-8-8-8
D-7-7-7-7-7-7-7-7-7-7-7-7-7-7-7-7-6-6-6-6-6-6-6-6-6-6-6-6-6-6-6-9-9-9-9-9-9-9-9-9-9-9
A-5-5-5-5-5-5-5-5-5-5-5-5-5-5-5-5-4-4-4-4-4-4-4-4-4-4-4-4-4-4-4-9-9-9-9-9-9-9-9-9-9-9
E-5-5-5-5-5-5-5-5-5-5-5-5-5-5-5-5-4-4-4-4-4-4-4-4-4-4-4-4-4-4-4-7-7-7-7-7-7-7-7-7-7-7

E-7-7-7-7-5-5-5-5-5-5-5-5-5-5-5-5-5-5-5-5-5-5-5-5-5-5-5-5-5-5-5-5-5-5-4-4-4-4-4-4-4-4
B-7-7-7-7-5-5-5-5-5-5-5-5-5-5-5-5-5-5-5-6-6-6-6-6-6-6-6-6-6-6-6-6-6-6-5-5-5-5-5-5-5-5
G-8-8-8-8-6-6-6-6-6-6-6-6-6-6-6-6-6-6-6-7-7-7-7-7-7-7-7-7-7-7-7-7-7-7-6-6-6-6-6-6-6-6
D-9-9-9-9-7-7-7-7-7-7-7-7-7-7-7-7-7-7-7-7-7-7-7-7-7-7-7-7-7-7-7-7-7-7-6-6-6-6-6-6-6-6
A-9-9-9-9-7-7-7-7-7-7-7-7-7-7-7-7-7-7-7-5-5-5-5-5-5-5-5-5-5-5-5-5-5-5-4-4-4-4-4-4-4-4
E-7-7-7-7-5-5-5-5-5-5-5-5-5-5-5-5-5-5-5-5-5-5-5-5-5-5-5-5-5-5-5-5-5-5-4-4-4-4-4-4-4-4

E-4-4-4-4-4-4-4-3-3-3-3-3-3-3-3-3-3-3-3-3-3-3-5-5-5-5-5-5-5-5-5-5-5-5-5-5-5-
B-5-5-5-5-5-5-5-3-3-3-3-3-3-3-3-3-3-3-3-3-3-3-6-6-6-6-6-6-6-6-6-6-6-6-6-6-6-
G-6-6-6-6-6-6-6-4-4-4-4-4-4-4-4-4-4-4-4-4-4-4-7-7-7-7-7-7-7-7-7-7-7-7-7-7-7-
D-6-6-6-6-6-6-6-5-5-5-5-5-5-5-5-5-5-5-5-5-5-5-7-7-7-7-7-7-7-7-7-7-7-7-7-7-7-
A-4-4-4-4-4-4-4-5-5-5-5-5-5-5-5-5-5-5-5-5-5-5-5-5-5-5-5-5-5-5-5-5-5-5-5-5-5-
E-4-4-4-4-4-4-4-3-3-3-3-3-3-3-3-3-3-3-3-3-3-3-5-5-5-5-5-5-5-5-5-5-5-5-5-5-5-

Verse 4

E-2-2-2-2-2-2-2-2-2-2-3-3-3-3-3-3-3-3-3-3-2-2-2-2-2-2-2-2-2-2-3-3-3-3-3-3-3-3-3-3-
B-2-2-2-2-2-2-2-2-2-2-3-3-3-3-3-3-3-3-3-3-2-2-2-2-2-2-2-2-2-2-3-3-3-3-3-3-3-3-3-3-
G-3-3-3-3-3-3-3-3-3-3-4-4-4-4-4-4-4-4-4-4-3-3-3-3-3-3-3-3-3-3-4-4-4-4-4-4-4-4-4-4-
D-4-4-4-4-4-4-4-4-4-4-5-5-5-5-5-5-5-5-5-5-4-4-4-4-4-4-4-4-4-4-5-5-5-5-5-5-5-5-5-5-
A-4-4-4-4-4-4-4-4-4-4-5-5-5-5-5-5-5-5-5-5-4-4-4-4-4-4-4-4-4-4-5-5-5-5-5-5-5-5-5-5-
E-2-2-2-2-2-2-2-2-2-2-3-3-3-3-3-3-3-3-3-3-2-2-2-2-2-2-2-2-2-2-3-3-3-3-3-3-3-3-3-3-

E-2-2-2-2-2-2-2-2-2-2-3-3-3-3-3-3-3-3-3-3-2-2-2-2-2-2-2-2-2-2-3-3-3-3-3-3-3-3-3-3-
B-2-2-2-2-2-2-2-2-2-2-3-3-3-3-3-3-3-3-3-3-2-2-2-2-2-2-2-2-2-2-3-3-3-3-3-3-3-3-3-3-
G-3-3-3-3-3-3-3-3-3-3-4-4-4-4-4-4-4-4-4-4-3-3-3-3-3-3-3-3-3-3-4-4-4-4-4-4-4-4-4-4-
D-4-4-4-4-4-4-4-4-4-4-5-5-5-5-5-5-5-5-5-5-4-4-4-4-4-4-4-4-4-4-5-5-5-5-5-5-5-5-5-5-
A-4-4-4-4-4-4-4-4-4-4-5-5-5-5-5-5-5-5-5-5-4-4-4-4-4-4-4-4-4-4-5-5-5-5-5-5-5-5-5-5-
E-2-2-2-2-2-2-2-2-2-2-3-3-3-3-3-3-3-3-3-3-2-2-2-2-2-2-2-2-2-2-3-3-3-3-3-3-3-3-3-3-

E-5-5-5-5-5-
B-5-5-5-5-5-
G-6-6-6-6-6-
D-7-7-7-7-7-
A-7-7-7-7-7-
E-5-5-5-5-5-

CHORUS - DISTORTION
E-5-5-5-5-5-5-5-5-5-5-5-5-5-5-5-5-4-4-4-4-4-4-4-4-4-4-4-4-4-4-4-7-7-7-7-7-7-7-7-7-7-7
B-6-6-6-6-6-6-6-6-6-6-6-6-6-6-6-6-5-5-5-5-5-5-5-5-5-5-5-5-5-5-5-7-7-7-7-7-7-7-7-7-7-7
G-7-7-7-7-7-7-7-7-7-7-7-7-7-7-7-7-6-6-6-6-6-6-6-6-6-6-6-6-6-6-6-8-8-8-8-8-8-8-8-8-8-8
D-7-7-7-7-7-7-7-7-7-7-7-7-7-7-7-7-6-6-6-6-6-6-6-6-6-6-6-6-6-6-6-9-9-9-9-9-9-9-9-9-9-9
A-5-5-5-5-5-5-5-5-5-5-5-5-5-5-5-5-4-4-4-4-4-4-4-4-4-4-4-4-4-4-4-9-9-9-9-9-9-9-9-9-9-9
E-5-5-5-5-5-5-5-5-5-5-5-5-5-5-5-5-4-4-4-4-4-4-4-4-4-4-4-4-4-4-4-7-7-7-7-7-7-7-7-7-7-7

E-7-7-7-7-5-5-5-5-5-5-5-5-5-5-5-5-5-5-5-5-5-5-5-5-5-5-5-5-5-5-5-5-5-5-4-4-4-4-4-4-4-4
B-7-7-7-7-5-5-5-5-5-5-5-5-5-5-5-5-5-5-5-6-6-6-6-6-6-6-6-6-6-6-6-6-6-6-5-5-5-5-5-5-5-5
G-8-8-8-8-6-6-6-6-6-6-6-6-6-6-6-6-6-6-6-7-7-7-7-7-7-7-7-7-7-7-7-7-7-7-6-6-6-6-6-6-6-6
D-9-9-9-9-7-7-7-7-7-7-7-7-7-7-7-7-7-7-7-7-7-7-7-7-7-7-7-7-7-7-7-7-7-7-6-6-6-6-6-6-6-6
A-9-9-9-9-7-7-7-7-7-7-7-7-7-7-7-7-7-7-7-5-5-5-5-5-5-5-5-5-5-5-5-5-5-5-4-4-4-4-4-4-4-4
E-7-7-7-7-5-5-5-5-5-5-5-5-5-5-5-5-5-5-5-5-5-5-5-5-5-5-5-5-5-5-5-5-5-5-4-4-4-4-4-4-4-4

E-4-4-4-4-4-4-4-3-3-3-3-3-3-3-3-3-3-3-3-3-3-3-5-5-5-5-5-5-5-5-5-5-5-5-5-5-5-
B-5-5-5-5-5-5-5-3-3-3-3-3-3-3-3-3-3-3-3-3-3-3-6-6-6-6-6-6-6-6-6-6-6-6-6-6-6-
G-6-6-6-6-6-6-6-4-4-4-4-4-4-4-4-4-4-4-4-4-4-4-7-7-7-7-7-7-7-7-7-7-7-7-7-7-7-
D-6-6-6-6-6-6-6-5-5-5-5-5-5-5-5-5-5-5-5-5-5-5-7-7-7-7-7-7-7-7-7-7-7-7-7-7-7-
A-4-4-4-4-4-4-4-5-5-5-5-5-5-5-5-5-5-5-5-5-5-5-5-5-5-5-5-5-5-5-5-5-5-5-5-5-5-
E-4-4-4-4-4-4-4-3-3-3-3-3-3-3-3-3-3-3-3-3-3-3-5-5-5-5-5-5-5-5-5-5-5-5-5-5-5-

0UTR0

E------------------------------------------------------------------------------------
B------------------------------------------------------------------------------------
G-9--11-11-11-11-9--11-11-11-11-9--11-11-11-11-9--11-11-11-11-12-11-9--9-11-11-11-11-
D-X--X--X--X--X--X--X--X--X--X--X--X--X--X--X--X--X--X--X--X--X--X--X--X-X--X--X--X--
A-7--9--9--9--9--7--9--9--9--9--7--9--9--9--9--7--9--9--9--9--10-9--7--7-9--9--9--9--
E------------------------------------------------------------------------------------

E---------------------------------------------------
B---------------------------------------------------
G-9--11-11-11-11-9-11-11-11-11-9-11-11-11-11-12-11-9
D-X--X--X--X--X--X-X--X--X--X--X-X--X--X--X--X--X--X
A-7--9--9--9--9--7-9--9--9--9--7-9--9--9--9--10-9--7
E---------------------------------------------------
E------------------------------------------------------------------------------------
B------------------------------------------------------------------------------------
G-9--11-11-11-11-9--11-11-11-11-9--11-11-11-11-9--11-11-11-11-12-11-9--9-11-11-11-11-
D-X--X--X--X--X--X--X--X--X--X--X--X--X--X--X--X--X--X--X--X--X--X--X--X-X--X--X--X--
A-7--9--9--9--9--7--9--9--9--9--7--9--9--9--9--7--9--9--9--9--10-9--7--7-9--9--9--9--
E------------------------------------------------------------------------------------

E-----------------------------------------------------
B-----------------------------------------------------
G-9--11-11-11-11-9-11-11-11-11-9-11-11-11-11-12-11-9-9
D-X--X--X--X--X--X-X--X--X--X--X-X--X--X--X--X--X--X-X
A-7--9--9--9--9--7-9--9--9--9--7-9--9--9--9--10-9--7-7


Important: The song above is NOT stored on the Chordie server. The original song is hosted at www.xguitar.com. Chordie works as a search engine and provides on-the-fly formatting. Chordie does not index songs against artists/composers will. To remove this song please click here.

This song is displayed as text-only. Transposing and tuning is only available for chordpro-songs.

Login - add to songbook

Rating click stars to rate

Layout
Accuracy

SHARE PAGE  




You need to log in to post comments