""; ?> The Feeling by Joe Satriani - guitar chords, guitar tabs and lyrics - chordie

The Feeling

Joe Satriani


THE FEELING As recorded by Joe Satriani (From the 1989 Album FLYING IN A BLUE DREAM)
Music by Joe Satriani Transcribed by www.mikesguitarsite.co.uk
Intro - Freely 4/4 Gtr I |---------------------:-------|| |-^3---^3--------^3---:-^3----|| |--0h2--0h2-(2)---0h2-:-^2----|| |-^0---^0-------------:-^0----|| |---------------------:-^0----|| |---------------------:-------||
In Time Q=132 |-------------------------------|---------------------------------| |-3---3-3-3-3---3-3-3-3-3---3-3-|-3---3-3-3-3-3----3--3-3-3---3-3-| |-0h2-2-2-2-0h2-2-2-2-2-0h2---2-|-0h2---2-2-2-0h2-(2)-2-2-2---2-0-| |-0-----------------------------|-0-------------------------0---0-| |-------------------------------|---------------------------------| |-------------------------------|---------------------------------|
|-----------------------------|-----------------------------| |-3---3-3-3-3-------------3-3-|-----3-3--3--3-3-3-3-3-3-3-3-| |-0h2-2-2-2-2-------0-0-0-0-0-|-----0-0--0--0---0-0-0-2-2-2-| |-------------2-(2)-0---0-----|----------0--0---0-0-0-------| |-------------0-(0)---3-------|-0h3-----(3)-----------------| |-----------------------------|-----------------------------|
|-------------------------------|-------------------------------| |-3---3-3-3-3-----(3)-------3-3-|-----3-3-3-3-----(3)---3-3-3-3-| |-0h2---2-2-2-----(2)-----0-0-0-|-----0-0-0-0-----(0)-2-2-2-2-2-| |-0-----------2b3r(2)-0---0-----|-------------------------------| |-----------------------3-3-----|-0h3-----3---------------------| |-------------------------------|-------------3b4--0------------|
|---------------------------------|------------------------------------| |-3-3-3-3-3-3-----(3)-----3-3-3-3-|-----3-3--3--3----3--3-----(3)-3-3--| |-2-2-2-2-2-2-----(2)-----0-0-0-0-|-----0-0--0--0----0--0-----(0)------| |-0-----------2b3r(2)-0---0-------|-0----------------------------------| |-----------------------3---------|---3-----(3)---2-(2)----------------| |---------------------------------|-----------------------3b4--0-------|
|-------------------------------|-------------------------------| |---3-3-3-3-3-----(3)-----3-3-3-|-----3-3-3---3-3-3-------3-3-3-| |---2---------------------0-0-0-|-----0-0-0---0-0-0-------2-2-2-| |-0-----------2b3r(2)-0---0-----|-------------------------0-----| |-----------------------3-------|-0h3---------------------------| |-------------------------------|---------3b4---x---3b4-0-------|
|-------------------------------------| |-----3-3--3--3---3--3--3-3-3-(3)-----| |-----2-2--2--2---4--4--4-4-4-(4)-----| |-------------------------------------| |-------------------------------------| |-0-3-----(3)---3s5-(5)--------5s3-0--|
|---------------------------|------------------------------------| |--3--3-3-3-3-----3-3-3-3---|-----3-3--3--3---3--3--3-3-3-(3)----| |--2--2-2-2-2-------------2-|-----2-2--2--2---4--4--4-4-4-(4)----| |-----------------0-0-0-----|------------------------------------| |-------------0-3-----------|------------------------------------| |-(0)-----------------------|-0-3-----(3)---3s5-(5)--------5s3-0-|
|-----------------------------------| |--3--3-3-3-3-3-----(3)-------------| |--2--2-2-2-2-2-----(2)--------0-0--| |---------------3p0------------0-0--| |--------------------3p0------------| |-(0)--------------------3b4-0------|
|------------------------------------| |-----3-3--3--3---3--3--3-3-3-(3)----| |-----2-2--2--2---4--4--4-4-4-(4)----| |------------------------------------| |------------------------------------| |-0-3-----(3)---3s5-(5)--------5s3-0-|
|-------------------------------|----------------------------------| |--3--3-3-3-3-3-----(3)---------|-----3--3--3---3--3--3-3-3-(3)----| |--2--2-2-2-2-2-----(2)---------|-----2--2--2---4--4--4-4-4-(4)----| |--0--0-0-0-0-0------0--3p0---0-|----------------------------------| |---------------0h2---------3---|----------------------------------| |-(0)---------------------------|-0-3---(3)---3s5-(5)--------5s3-0-|
2/4 4/4 |-----------------|---------------------------------| |--3--3-3-3-3-3-3-|-----3-3--3--3----3--3-3-3-3-3-3-| |--2--2-2-2-2-2-0-|-----0-0--0--0----2--2-2-2-2-2-2-| |-----------------|---------------0-(0)-------------| |-----------------|-0h3-----(3)---------------------| |-(0)-------------|---------------------------------|
|-------------------------------| |-----3-3--3--3-------3-----3-3-| |-----0-0--0--0---------2-2-2-2-| |---------------0-(0)-----------| |-0h3-----(3)-------------------| |-------------------------------|
|--------------0-0------------------|-------------------------------| |-(3)--3-3-(3)-3-3-3-3-3-3-(3)--3-3-|---3-3-3-3-3-3-----3-3-3-3-3-3-| |-(2)--0-0-(0)-0-0-0-0-0-0-(0)--0-0-|---2-2-2-2-2-2-0h2-2-2-2-2-2-2-| |-----------------------------------|-0-------------0-------0-0-0-0-| |--0h3-----(3)--------------0h3-----|-------------------------------| |-----------------------------------|-------------------------------|
|----------------------|--------*| |-----3-3-3----------3-|-(3)----*| |-0h2-2-2-2-----^4h5---|--------*| |-0-----0-0-0---^5-----|--------*| |----------------------|--------*| |-------------0--------|-(0)----*|
*************************************************************************************** * Generated using Power Tab Editor by Brad Larsen - http://powertab.guitarnetwork.org * ***************************************************************************************























variations - click chord images
Transpose chords:
Tuning:
Cool service:
View: Size:
A  A  A
Rating:
Layout:
  • Currently 0/5 Stars.
  • 1
  • 2
  • 3
  • 4
  • 5
 
Accuracy:
  • Currently 2.7/5 Stars.
  • 1
  • 2
  • 3
  • 4
  • 5
 
click stars to rate
Chordie recommends:
Get acoustic guitar lessons and electric guitar lessons at JamPlay.com
Songbook:
Login to add this song to your songbook
Support the artist
Preview/buy this song
MSN Music
Why this non-profit ad?

 
login to add comments/video/corrections