Chordie logo

Brother John    Joe Satriani



Explanation:
h     : hammer on
p     : pull off
harm. : natural harmonic
/     : slide up
^     : bend up
r     : release
        p           h p     p                 p
-----------------------------------------------------2-----0--------------
-----------------------------------------------------2-----0--------------
-----------4-(4)-4-------------4-(4)-4-----------4-------------4---3------
/4-4-4-----2-(2)-2-4-----4-----2-(2)-2-4-4-4-----2-------4-----2---2------
/4-5-4-2-0---------4-5-4-4-2-0---------4-5-4-2-0---5----------------------
-------------------------------------------------------3-----2------------

        p           h p     p                 p
-----------------------------------------------------2-----0--------------
-----------------------------------------------------2-----0--------------
-----------4-(4)-4-------------4-(4)-4-----------4-------------4---3------
/4-4-4-----2-(2)-2-4-----4-----2-(2)-2-4-4-4-----2-------4-----2---2------
/4-5-4-2-0---------4-5-4-4-2-0---------4-5-4-2-0---5----------------------
-------------------------------------------------------3-----2------------
                                                     harm...
-----------------------------------------------------12-------------------
----------------------------------------------------------12--------------
-----11-11-11----11-11-11---11-11-11---9-9-9---9-9-9--------------9-9-9---
-----11-11-11----11-11-11----9--9--9---9-9-9---9-9-9--------------7-7-7---
--------------------------------------------------------------------------
--10----------10----------9----------9-------8------------------7---------
--------------------------------------------------------------------------
-----------------------------------------------3-3---3-3---2-2---2-2------
---8-8-8-----6-6-6---6-6-6-----4-4-4---4-4-4---4-4---4-4---3-3---3-3------
---7-7-7-----5-5-5---5-5-5-----4-4-4---4-4-4------------------------------
--------------------------------------------------------------------------
-7---------5-------5---------3-------3-------2-----2-----2-----2----------
---------------------------
---------------------------
---4-4---4-4---3-3---3-3---
---5-5---5-5---4-4---4-4---
---------------------------
-2-----2-----2-----2-------

        p           h p     p                 p
-----------------------------------------------------2-----0--------------
-----------------------------------------------------2-----0--------------
-----------4-(4)-4-------------4-(4)-4-----------4-------------4---3------
/4-4-4-----2-(2)-2-4-----4-----2-(2)-2-4-4-4-----2-------4-----2---2------
/4-5-4-2-0---------4-5-4-4-2-0---------4-5-4-2-0---5----------------------
-------------------------------------------------------3-----2------------
        p           h p     p                 p
-----------------------------------------------------2-----0--------------
-----------------------------------------------------2-----0--------------
-----------4-(4)-4-------------4-(4)-4-----------4-------------4---3------
/4-4-4-----2-(2)-2-4-----4-----2-(2)-2-4-4-4-----2-------4-----2---2------
/4-5-4-2-0---------4-5-4-4-2-0---------4-5-4-2-0---5----------------------
-------------------------------------------------------3-----2------------
                                                     harm...
-----------------------------------------------------12-------------------
----------------------------------------------------------12--------------
-----11-11-11----11-11-11---11-11-11---9-9-9---9-9-9--------------9-9-9---
-----11-11-11----11-11-11----9--9--9---9-9-9---9-9-9--------------7-7-7---
--------------------------------------------------------------------------
--10----------10----------9----------9-------8------------------7---------

--------------------------------------------------------------------------
-----------------------------------------------3-3---3-3---2-2---2-2------
---8-8-8-----6-6-6---6-6-6-----4-4-4---4-4-4---4-4---4-4---3-3---3-3------
---7-7-7-----5-5-5---5-5-5-----4-4-4---4-4-4------------------------------
--------------------------------------------------------------------------
-7---------5-------5---------3-------3-------2-----2-----2-----2----------

---------------------------7-7---7-7---6-6---6-6--------------------------
---------------------------8-8---8-8---7-7---7-7---8-8---8-8---7-7---7-7--
---4-4---4-4---3-3---3-3---------------------------7-7---7-7---6-6---6-6--
---5-5---5-5---4-4---4-4--------------------------------------------------
-------------------------------7-----------7-----------7-----------7------
-2-----2-----2-----2-----0-----------0-----------0-----------0------------

---7-7---7-7---6-6---6-6---------------------------7-7---7-7---6-6---6-6--
---8-8---8-8---7-7---7-7---8-8---8-8---7-7---7-7---8-8---8-8---7-7---7-7--
---------------------------------------6-6---6-6--------------------------
---------------------------9-9---9-9--------------------------------------
/9-----9-----9-----9-----9-----9-----9-----9-----------7-----------7------
-------------------------------------------------0-----------0------------

---------------------------7-7---7-7---6-6---6-6-----9--9-----9--9--------
---8-8---8-8---7-7---7-7---8-8---8-8---7-7---7-7----10-10----10-10--------
---7-7---7-7---6-6---6-6--------------------------------------------------
--------------------------------------------------------------------------
-------7-----------7-----9-----9-----9-----9-----10-------10--------------
-0-----------0------------------------------------------------------------
           harm.
----7-7----------

----8-8----12----
-----------------
-----------------
-10-----10-------
-----------------
        p           h p     p               p
---------------------------------------------------0----------------------
-----------------------------------------------0--------------------------
-----------4-(4)-4-------------4-4-4--------------2----2---0--------------
/4-4-4-----2-(4)-2-4-----4-----2-2-2-4-4-4----2--0----0---2----4^(5)r4----
/4-5-4-2-0---------4-5-4-4-2-0-------4-5-4-2-0----------------4-^(5)r4----
-----------------------------------------------------3---0---2------------
        p           h p     p               p
---------------------------------------------------0----------------------
-----------------------------------------------0--------------------------
-----------4-(4)-4-------------4-4-4--------------2----2---0--------------
/4-4-4-----2-(4)-2-4-----4-----2-2-2-4-4-4----2--0----0---2----4^(5)r4----
/4-5-4-2-0---------4-5-4-4-2-0-------4-5-4-2-0----------------4-^(5)r4----
-----------------------------------------------------3---0---2------------

---------------------------------------------0---7------------------------
-------2-3-2--------------4-5-4----------------7--------------------------
-----2-------2----------4-------4----------6------------------------------
--------------------------------------------------------------------------
---5-----------5------7-----------7------9--------------------------------
-3------------------5------------------7----------------------------------



Important: The song above is NOT stored on the Chordie server. The original song is hosted at www.xguitar.com. Chordie works as a search engine and provides on-the-fly formatting. Chordie does not index songs against artists/composers will. To remove this song please click here.

This song is displayed as text-only. Transposing and tuning is only available for chordpro-songs.

Login - add to songbook

Rating click stars to rate

Layout
Accuracy

SHARE PAGE  



You need to log in to post comments