"yes"; ?> Always With Me, Always With You by Joe Satriani - guitar chords, guitar tabs and lyrics - chordie

Always With Me, Always With You

Joe Satriani

E||----------------|----------------|------------------|

B||----------4--5--|--5/7~----------|--7/9-----7----5--|

G||----------------|----------------|------------------|

D||----------------|----------------|------------------|

A||----------------|----------------|------------------|

E||----------------|----------------|------------------|

------------------|--------------|-------------------|

--4----5----------|--------------|-------------------|

----------4/6~----|--------------|--6/4---6--6/8-----|

------------------|--------------|-------------------|

------------------|--------------|-------------------|

------------------|--------------|-------------------|

------------------|---------------|----------------|-----------------|

------------------|---------------|----------------|-----------------|

--8/9~----8----6--|---------------|----------------|--4~-------------|

------------------|--4~-----------|--------4----4--|---------4----4--|

------------------|---------------|----------------|-----------------|

------------------|---------------|----------------|-----------------|

------------------|---------------|----------------------|

------------------|---------------|-----4------5----7----|

--4/6~------6/8/--|--6~-----------|--4-------------------|

------------------|---------------|----------------------|

------------------|---------------|----------------------|

------------------|---------------|----------------------|

------------------|----------------|---------------|----------------|

--7/9h--7/---5/---|--4~----------4/|--2------------|----------------|

------------------|----------------|---------------|--2/4~----------|

------------------|----------------|---------------|----------------|

------------------|----------------|---------------|----------------|

------------------|----------------|---------------|----------------|

-------------------|----------7----7--|-----------9----9----9-11-|

------4--5--5/7----|--7/9~------------|--9/11~------12---12------|

-------------------|------------------|--------------------------|

-------------------|------------------|--------------------------|

-------------------|------------------|--------------------------|

-------------------|------------------|--------------------------|

--12/14-----11--------|----------------|----18r---16--------|

---------------14-----|--14b-----------|--------------19----|

----------------------|----------------|--------------------|

----------------------|----------------|--------------------|

----------------------|----------------|--------------------|

----------------------|----------------|--------------------|

--18r-18r-------16----|--19b-----19------|-------------------|

----------19----------|------------------|--17b-------17/-0--|

----------------------|------------------|-------------------|

----------------------|------------------|-------------------|

----------------------|------------------|-------------------|

----------------------|------------------|-------------------|

----16h----14h12/11--14--|--12h-11------------|--19----------18------|

-------------------------|----------14/-------|----------------------|

-------------------------|--------------------|------18r---------16--|

-------------------------|--------------------|----------------------|

-------------------------|--------------------|----------------------|

-------------------------|--------------------|----------------------|

--16----------------|----------------|--------------|----------------|

----------19r-------|--19~-----------|--------------|--------12------|

------16------------|----------------|--------------|----------------|

--------------------|----------------|--------------|----------------|

--------------------|----------------|--------------|----------------|

--------------------|----------------|--------------|----------------|

--21r-------21/---|----14r---12----12----------|--15/17----14~-------|

------------------|-------------15----15h14h12-|---------------------|

------------------|----------------------------|---------------------|

------------------|----------------------------|---------------------|

------------------|----------------------------|---------------------|

------------------|----------------------------|---------------------|

-----9r-9r-9r--7----|--7----------------------------|

-----------------10-|----10h8-7---------------------|

--------------------|-----------9h7/6-7h9---7-6/4-7-|

--------------------|-------------------------------|

--------------------|-------------------------------|

--------------------|-------------------------------|

----------------------------------|---------------|----------------|

----------------------------------|---------------|----------14r---|

----6h4---4-----------4-----------|---------------|----------------|

--------7---7h5h4h5h7---7h5h4-----|---------------|----------------|

------------------------------7h5-|--4/-----------|----------------|

----------------------------------|---------------|----------------|

------------------------|--------------------------------------|

--14--------------------|--------------12h14h15h14h12----------|

------------------------|-----11h12h14----------------14-12/11-|

------------------11h12h|--14----------------------------------|

------------12h14-------|--------------------------------------|

------------------------|--------------------------------------|

------------------|------------------|------------14r---|

------------------|--10/12~----------|--------12--------|

--11/15~----------|------------------|------------------|

------------------|------------------|------------------|

------------------|------------------|------------------|

------------------|------------------|------------------|

------------------|------------------|----------------|

------------------|------------------|------14r-------|

--------12/11-----|------------------|----------------|

------------------|------------------|----------------|

------------------|--10/9~--------9/-|----------------|

------------------|------------------|----------------|

------------14r---|--------------|--------12----12--|

--12~-------------|--------------|------------------|

------------------|--------------|------------------|

------------------|--------------|------------------|

------------------|--------------|------------------|

------------------|--------------|------------------|

--11/-----9/---7/-|--6~-----------|----------11--12--|

------------------|---------------|------------------|

------------------|---------------|------------------|

------------------|---------------|------------------|

------------------|---------------|------------------|

------------------|---------------|------------------|

--12/14~----------|--14h16~----14----12--|--11----12/-9~-----|

------------------|----------------------|-------------------|

------------------|----------------------|-------------------|

------------------|----------------------|-------------------|

------------------|----------------------|-------------------|

------------------|----------------------|-------------------|

--------------|--9/7---9--9/11~----|--11r---------9--|

--------------|--------------------|-----------------|

--------------|--------------------|-----------------|

--------------|--------------------|-----------------|

--------------|--------------------|-----------------|

--------------|--------------------|-----------------|

----------------|------------------|--------------------|

--9/7~----------|------------------|--12~---------------|

----------------|--------11----11--|----------11----11--|

----------------|------------------|--------------------|

----------------|------------------|--------------------|

----------------|------------------|--------------------|

----------------------|----------------|----11----12----14--|

--12/14~------14/16---|--14------------|--------------------|

----------------------|----------------|--------------------|

----------------------|----------------|--------------------|

----------------------|----------------|--------------------|

----------------------|----------------|--------------------|

--16h---14~---------|------------------|------------------|

--------------17----|--16~----------16/|--14~----------14/|

--------------------|------------------|------------------|

--------------------|------------------|------------------|

--------------------|------------------|------------------|

--------------------|------------------|------------------|

----------------|------------------------------|

--12~-----------|--0-12h0h9-12h0h7-12h0h9-12h0h|

----------------|------------------------------|

----------------|------------------------------|

----------------|------------------------------|

----------------|------------------------------|

------------------------------|------------------------------|

--5-12h0h7-12h0h9-12h0h7-12h0h|--5-12h0h7-12h0h7-12h0h7-12h0h|

------------------------------|------------------------------|

------------------------------|------------------------------|

------------------------------|------------------------------|

------------------------------|------------------------------|

--------------------------------|------------------------------|

--11-12h0h11-12h0h9-12h0h7-12h0h|--9-12h0h7-12h0h5-12h0h7-12h0h|

--------------------------------|------------------------------|

--------------------------------|------------------------------|

--------------------------------|------------------------------|

--------------------------------|------------------------------|

------------------------------|------------------------------|

--9-12h0h7-12h0h5-12h0h4-12h0h|--2-12h0h2-12h0h2-12h0h2-12h0h|

------------------------------|------------------------------|

------------------------------|------------------------------|

------------------------------|------------------------------|

------------------------------|------------------------------|

--------------------------------|------------------------------|

--11-12h0h11-12h0h9-12h0h7-12h0h|--9-12h0h7-12h0h5-12h0h7-12h0h|

--------------------------------|------------------------------|

--------------------------------|------------------------------|

--------------------------------|------------------------------|

--------------------------------|------------------------------|

------------------------------|------------------------------|

--9-12h0h7-12h0h4-12h0h5-12h0h|--5-12h0h5-12h0h5-12h0h5-12h0-|

------------------------------|------------------------------|

------------------------------|------------------------------|

------------------------------|------------------------------|

------------------------------|------------------------------|

---------------------|------------------------|--12------------|

--8/9-----7/-9--9/12-|--12/14-----12--12/14---|--9-------------|

--7/8-----6/-8--8/11-|--11/13-----11--11/13---|----------------|

---------------------|------------------------|----------------|

---------------------|------------------------|----------------|

---------------------|------------------------|----------------|

--13/14---14----14----|--14-------14/19----|--19~----16-----------|

--10/11---11----11----|--12----------------|------------19h16-----|

----------------------|--------------------|----------------------|

----------------------|--------------------|----------------------|

----------------------|--------------------|----------------------|

----------------------|--------------------|----------------------|

--19r-----16-------21r--|------19-21~----21/-|-------------4-----|

-------------19h16------|--------------------|---------------7h4-|

------------------------|--------------------|----6b---6b--------|

------------------------|--------------------|-------------------|

------------------------|--------------------|-------------------|

------------------------|--------------------|-------------------|

---------------------4---|------4------------------|-----------------|

-----4-----------------7h|--4---4------------------|-----------------|

--6b----7h-6h4-6r-6b-----|----6b--7h6h4------------|-----------------|

-------------------------|--------------6h4--------|-----------------|

-------------------------|------------------6h4/2--|--2/4~--------4/-|

-------------------------|-------------------------|-----------------|

---------14------11--11r-|----11r--9h7h9-------------|

-------------12----------|---------------12h11h9-11~-|

------9------------------|---------------------------|

-------------------------|---------------------------|

-------------------------|---------------------------|

-------------------------|---------------------------|

------------------------|-----------------|--21r-----------|

----9h11h9/7h--9h7/5~---|--5/7~----7/-----|----------------|

------------------------|-----------------|----------------|

------------------------|-----------------|----------------|

------------------------|-----------------|----------------|

------------------------|-----------------|----------------|

--19~-----21b-----|----------------|---------------|----------------|

------------------|----------------|---------------|----------4--5--|

------------------|----------------|---------------|----------------|

------------------|----------4/-6/-|--4~-----------|----------------|

------------------|----------------|---------------|----------------|

------------------|----------------|---------------|----------------|

----------------|------------------|-----------------|--------------|

--5/7~----------|--7/9h----7/---5/-|--4/---5/-2~-----|--------------|

----------------|------------------|-----------------|--------------|

----------------|------------------|-----------------|--------------|

----------------|------------------|-----------------|--------------|

----------------|------------------|-----------------|--------------|

-----------------|------------------|----------------|

-----------------|------------------|----------------|

--4----6/-8------|--8/9h----8/---6--|----------------|

-----------------|------------------|--6/4~----------|

-----------------|------------------|----------------|

-----------------|------------------|----------------|

----------------|-----------------|------------------|---------------|

----------------|-----------------|------------------|---------------|

----------------|--4--------------|--4/6~------6/8/--|--6~-----------|

--------4----4--|---------4----4--|------------------|---------------|

----------------|-----------------|------------------|---------------|

----------------|-----------------|------------------|---------------|

----------------------|------------------|----------------|

-----4------5----7----|--7/9h--7/---5/---|--4~----------4/|

--4-------------------|------------------|----------------|

----------------------|------------------|----------------|

----------------------|------------------|----------------|

----------------------|------------------|----------------|

---------------|----------------|------------------|

--2~-----------|----------------|-------4--5--7----|

---------------|--2/4~----------|----4-------------|

---------------|----------------|------------------|

---------------|----------------|------------------|

---------------|----------------|------------------|

-------------------|------------------|--------------|

--7/9~----9/7---5--|--4h---5----------|--------------|

-------------------|----------4/6~----|--------------|

-------------------|------------------|--------------|

-------------------|------------------|--------------|

-------------------|------------------|--------------|

---------------------------|------------------------------|

---------------------------|------------------------------|

-----------8-9h---8--------|------------------------------|

----8h9-11----------11h9h8/|--6h8h9h---8h6-----------6-6--|

---------------------------|---------------9h7h6h7h9------|

---------------------------|------------------------------|

-------------------------------|---------------|--------------|

-------------------------------|---------------|--------------|

-------------------------------|---------------|--------------|

-------------------------------|---------------|--------------|

--9h7h6h7h9h---7h6---6h7---6---|---------------|--------------|

-------------------9---------9h|--7------------|--------------|


 Badd11E7Madd13
--------------------|--------------------|--------------------|
-----------5--------|-----------5--------|-----------4--------|
--------8-----8-----|--------8-----8-----|--------6-----6-----|
-----9-----------9--|-----9-----------9--|-----6-----------6--|
--------------------|--------------------|--------------------|
--7-----------------|--7-----------------|--0-----------------|

 F#sus4Badd11
--------------------|--------------------|--------------------|
-----------2--------|-----------5--------|-----------5--------|
--------4-----4-----|--------8-----8-----|--------8-----8-----|
-----4-----------4--|-----9-----------9--|-----9-----------9--|
--------------------|--------------------|--------------------|
--2-----------------|--7-----------------|--7-----------------|

 E7Madd13F#sus4Badd11
--------------------|--------------------|--------------------|
-----------4--------|-----------2--------|-----------5--------|
--------6-----6-----|--------4-----4-----|--------8-----8-----|
-----6-----------6--|-----4-----------4--|-----9-----------9--|
--------------------|--------------------|--------------------|
--0-----------------|--2-----------------|--7-----------------|

 E7Madd13F#sus4
--------------------|--------------------|--------------------|
-----------5--------|-----------4--------|-----------2--------|
--------8-----8-----|--------6-----6-----|--------4-----4-----|
-----9-----------9--|-----6-----------6--|-----4-----------4--|
--------------------|--------------------|--------------------|
--7-----------------|--0-----------------|--2-----------------|

 F#sus4/G#E7Madd13F#sus4
--------------------|--------------------|--------------------|
-----------2--------|-----------4--------|-----------2--------|
--------4-----4-----|--------6-----6-----|--------4-----4-----|
-----4-----------4--|-----6-----------6--|-----4-----------4--|
--------------------|--------------------|--------------------|
--4-----------------|--0-----------------|--2-----------------|

 F#Badd11
--------------------|--------------------|--------------------|
-----------2--------|-----------5--------|-----------5--------|
--------3-----3-----|--------8-----8-----|--------8-----8-----|
-----4-----------4--|-----9-----------9--|-----9-----------9--|
--------------------|--------------------|--------------------|
--2-----------------|--7-----------------|--7-----------------|

 E7Madd13F#sus4Badd11
--------------------|--------------------|--------------------|
-----------4--------|-----------2--------|-----------5--------|
--------6-----6-----|--------4-----4-----|--------8-----8-----|
-----6-----------6--|-----4-----------4--|-----9-----------9--|
--------------------|--------------------|--------------------|
--0-----------------|--2-----------------|--7-----------------|

 E7Madd13F#sus4
--------------------|--------------------|--------------------|
-----------5--------|-----------4--------|-----------2--------|
--------8-----8-----|--------6-----6-----|--------4-----4-----|
-----9-----------9--|-----6-----------6--|-----4-----------4--|
--------------------|--------------------|--------------------|
--7-----------------|--0-----------------|--2-----------------|

 Badd11E7Madd13
--------------------|--------------------|--------------------|
-----------5--------|-----------5--------|-----------4--------|
--------8-----8-----|--------8-----8-----|--------6-----6-----|
-----9-----------9--|-----9-----------9--|-----6-----------6--|
--------------------|--------------------|--------------------|
--7-----------------|--7-----------------|--0-----------------|

 F#sus4F#sus4/G#E7Madd13
--------------------|--------------------|--------------------|
-----------2--------|-----------2--------|-----------4--------|
--------4-----4-----|--------4-----4-----|--------6-----6-----|
-----4-----------4--|-----4-----------4--|-----6-----------6--|
--------------------|--------------------|--------------------|
--2-----------------|--4-----------------|--0-----------------|

 F#sus4F#Badd11
--------------------|--------------------|--------------------|
-----------2--------|-----------2--------|-----------5--------|
--------4-----4-----|--------3-----3-----|--------8-----8-----|
-----4-----------4--|-----4-----------4--|-----9-----------9--|
--------------------|--------------------|--------------------|
--2-----------------|--2-----------------|--7-----------------|

 E7Madd13F#sus4
--------------------|--------------------|--------------------|
-----------5--------|-----------4--------|-----------2--------|
--------8-----8-----|--------6-----6-----|--------4-----4-----|
-----9-----------9--|-----6-----------6--|-----4-----------4--|
--------------------|--------------------|--------------------|
--7-----------------|--0-----------------|--2-----------------|

 Badd11E7Madd13
--------------------|--------------------|--------------------|
-----------5--------|-----------5--------|-----------4--------|
--------8-----8-----|--------8-----8-----|--------6-----6-----|
-----9-----------9--|-----9-----------9--|-----6-----------6--|
--------------------|--------------------|--------------------|
--7-----------------|--7-----------------|--0-----------------|

 F#sus4Badd11
--------------------|--------------------|--------------------|
-----------2--------|-----------5--------|-----------5--------|
--------4-----4-----|--------8-----8-----|--------8-----8-----|
-----4-----------4--|-----9-----------9--|-----9-----------9--|
--------------------|--------------------|--------------------|
--2-----------------|--7-----------------|--7-----------------|

 E7Madd13F#sus4F#sus4/G#
--------------------|--------------------|--------------------|
-----------4--------|-----------2--------|-----------2--------|
--------6-----6-----|--------4-----4-----|--------4-----4-----|
-----6-----------6--|-----4-----------4--|-----4-----------4--|
--------------------|--------------------|--------------------|
--0-----------------|--2-----------------|--4-----------------|

 E7Madd13F#sus4F#
--------------------|--------------------|--------------------|
-----------4--------|-----------2--------|-----------2--------|
--------6-----6-----|--------4-----4-----|--------3-----3-----|
-----6-----------6--|-----4-----------4--|-----4-----------4--|
--------------------|--------------------|--------------------|
--0-----------------|--2-----------------|--2-----------------|

 Bmadd9Emadd9
----------------------|----------------------|--------------------|
----------------------|----------------------|--------------------|
------------7---------|------------7---------|-----------0--------|
--------11-----11-----|--------11-----11-----|--------4-----4-----|
-----9-------------9--|-----9-------------9--|-----2-----------2--|
--7-------------------|--7-------------------|--0-----------------|

 F#7sus4Bmadd9
--------------------|----------------------|----------------------|
--------------------|----------------------|----------------------|
-----------4--------|------------7---------|------------7---------|
--------2-----2-----|--------11-----11-----|--------11-----11-----|
-----4-----------4--|-----9-------------9--|-----9-------------9--|
--2-----------------|--7-------------------|--7-------------------|

 Emadd9F#7sus4Bmadd9
--------------------|--------------------|----------------------|
--------------------|--------------------|----------------------|
-----------0--------|-----------4--------|------------7---------|
--------4-----4-----|--------2-----2-----|--------11-----11-----|
-----2-----------2--|-----4-----------4--|-----9-------------9--|
--0-----------------|--2-----------------|--7-------------------|

 Emadd9F#7sus4
----------------------|--------------------|--------------------|
----------------------|--------------------|--------------------|
------------7---------|-----------0--------|-----------4--------|
--------11-----11-----|--------4-----4-----|--------2-----2-----|
-----9-------------9--|-----2-----------2--|-----4-----------4--|
--7-------------------|--0-----------------|--2-----------------|

 Gadd9Emadd9F#7sus4
--------------------|--------------------|--------------------|
--------------------|--------------------|--------------------|
-----------4--------|-----------0--------|-----------4--------|
--------7-----7-----|--------4-----4-----|--------2-----2-----|
-----5-----------5--|-----2-----------2--|-----4-----------4--|
--3-----------------|--0-----------------|--2-----------------|

 F#7Gadd9Emadd9
--------------------|--------------------|--------------------|
--------------------|--------------------|--------------------|
-----------3--------|-----------4--------|-----------0--------|
--------2-----2-----|--------7-----7-----|--------4-----4-----|
-----4-----------4--|-----5-----------5--|-----2-----------2--|
--2-----------------|--3-----------------|--0-----------------|

 F#7sus4F#7F#
--------------------|--------------------|--------------------|
--------------------|--------------------|--------------------|
-----------4--------|-----------3--------|-----------3--------|
--------2-----2-----|--------2-----2-----|--------4-----4-----|
-----4-----------4--|-----4-----------4--|-----4-----------4--|
--2-----------------|--2-----------------|--2-----------------|

 Badd11
---------------|--------------------|--------------------|
---------------|-----------5--------|-----------5--------|
---------------|--------8-----8-----|--------8-----8-----|
---------------|-----9-----------9--|-----9-----------9--|
---------------|--------------------|--------------------|
--2------------|--7-----------------|--7-----------------|

 E7Madd13F#sus4Badd11
--------------------|--------------------|--------------------|
-----------4--------|-----------2--------|-----------5--------|
--------6-----6-----|--------4-----4-----|--------8-----8-----|
-----6-----------6--|-----4-----------4--|-----9-----------9--|
--------------------|--------------------|--------------------|
--0-----------------|--2-----------------|--7-----------------|

 E7Madd13F#sus4
--------------------|--------------------|--------------------|
-----------5--------|-----------4--------|-----------2--------|
--------8-----8-----|--------6-----6-----|--------4-----4-----|
-----9-----------9--|-----6-----------6--|-----4-----------4--|
--------------------|--------------------|--------------------|
--7-----------------|--0-----------------|--2-----------------|

 Badd11E7Madd13
--------------------|--------------------|--------------------|
-----------5--------|-----------5--------|-----------4--------|
--------8-----8-----|--------8-----8-----|--------6-----6-----|
-----9-----------9--|-----9-----------9--|-----6-----------6--|
--------------------|--------------------|--------------------|
--7-----------------|--7-----------------|--0-----------------|

 F#sus4F#sus4/G#E7Madd13
--------------------|--------------------|--------------------|
-----------2--------|-----------2--------|-----------4--------|
--------4-----4-----|--------4-----4-----|--------6-----6-----|
-----4-----------4--|-----4-----------4--|-----6-----------6--|
--------------------|--------------------|--------------------|
--2-----------------|--4-----------------|--0-----------------|

 F#sus4F#Badd11
--------------------|--------------------|--------------------|
-----------2--------|-----------2--------|-----------5--------|
--------4-----4-----|--------3-----3-----|--------8-----8-----|
-----4-----------4--|-----4-----------4--|-----9-----------9--|
--------------------|--------------------|--------------------|
--2-----------------|--2-----------------|--7-----------------|

 E7Madd13F#sus4
--------------------|--------------------|--------------------|
-----------5--------|-----------4--------|-----------2--------|
--------8-----8-----|--------6-----6-----|--------4-----4-----|
-----9-----------9--|-----6-----------6--|-----4-----------4--|
--------------------|--------------------|--------------------|
--7-----------------|--0-----------------|--2-----------------|

 Badd11E7Madd13
--------------------|--------------------|--------------------|
-----------5--------|-----------5--------|-----------4--------|
--------8-----8-----|--------8-----8-----|--------6-----6-----|
-----9-----------9--|-----9-----------9--|-----6-----------6--|
--------------------|--------------------|--------------------|
--7-----------------|--7-----------------|--0-----------------|

 F#sus4Badd11
--------------------|--------------------|--------------------|
-----------2--------|-----------5--------|-----------5--------|
--------4-----4-----|--------8-----8-----|--------8-----8-----|
-----4-----------4--|-----9-----------9--|-----9-----------9--|
--------------------|--------------------|--------------------|
--2-----------------|--7-----------------|--7-----------------|

 E7Madd13F#sus4F#sus4/G#
--------------------|--------------------|--------------------|
-----------4--------|-----------2--------|-----------2--------|
--------6-----6-----|--------4-----4-----|--------4-----4-----|
-----6-----------6--|-----4-----------4--|-----4-----------4--|
--------------------|--------------------|--------------------|
--0-----------------|--2-----------------|--4-----------------|

 E7Madd13F#sus4F#
--------------------|--------------------|--------------------|
-----------4--------|-----------2--------|-----------2--------|
--------6-----6-----|--------4-----4-----|--------3-----3-----|
-----6-----------6--|-----4-----------4--|-----4-----------4--|
--------------------|--------------------|--------------------|
--0-----------------|--2-----------------|--2-----------------|

 Badd11E7Madd13
--------------------|--------------------|--------------------|
-----------5--------|-----------5--------|-----------4--------|
--------8-----8-----|--------8-----8-----|--------6-----6-----|
-----9-----------9--|-----9-----------9--|-----6-----------6--|
--------------------|--------------------|--------------------|
--7-----------------|--7-----------------|--0-----------------|

 F#sus4Badd11
--------------------|--------------------|--------------------|
-----------2--------|-----------5--------|-----------5--------|
--------4-----4-----|--------8-----8-----|--------8-----8-----|
-----4-----------4--|-----9-----------9--|-----9-----------9--|
--------------------|--------------------|--------------------|
--2-----------------|--7-----------------|--7-----------------|

 E7Madd13F#sus4Badd11
--------------------|--------------------|--------------------|
-----------4--------|-----------2--------|-----------5--------|
--------6-----6-----|--------4-----4-----|--------8-----8-----|
-----6-----------6--|-----4-----------4--|-----9-----------9--|
--------------------|--------------------|--------------------|
--0-----------------|--2-----------------|--7-----------------|

 E7Madd13F#sus4
--------------------|--------------------|--------------------|
-----------5--------|-----------4--------|-----------2--------|
--------8-----8-----|--------6-----6-----|--------4-----4-----|
-----9-----------9--|-----6-----------6--|-----4-----------4--|
--------------------|--------------------|--------------------|
--7-----------------|--0-----------------|--2-----------------|

 F#sus4/G#E7Madd13F#sus4
--------------------|--------------------|--------------------|
-----------2--------|-----------4--------|-----------2--------|
--------4-----4-----|--------6-----6-----|--------4-----4-----|
-----4-----------4--|-----6-----------6--|-----4-----------4--|
--------------------|--------------------|--------------------|
--4-----------------|--0-----------------|--2-----------------|

 F#Badd11
--------------------|--------------------|--------------------|
-----------2--------|-----------5--------|-----------5--------|
--------3-----3-----|--------8-----8-----|--------8-----8-----|
-----4-----------4--|-----9-----------9--|-----9-----------9--|
--------------------|--------------------|--------------------|
--2-----------------|--7-----------------|--7-----------------|

 E7Madd13F#sus4Badd11
--------------------|--------------------|--------------------|
-----------4--------|-----------2--------|-----------5--------|
--------6-----6-----|--------4-----4-----|--------8-----8-----|
-----6-----------6--|-----4-----------4--|-----9-----------9--|
--------------------|--------------------|--------------------|
--0-----------------|--2-----------------|--7-----------------|

 E7Madd13F#sus4
--------------------|--------------------|--------------------|
-----------5--------|-----------4--------|-----------2--------|
--------8-----8-----|--------6-----6-----|--------4-----4-----|
-----9-----------9--|-----6-----------6--|-----4-----------4--|
--------------------|--------------------|--------------------|
--7-----------------|--0-----------------|--2-----------------|

 Badd11E7Madd13
--------------------|--------------------|--------------------|
-----------5--------|-----------5--------|-----------4--------|
--------8-----8-----|--------8-----8-----|--------6-----6-----|
-----9-----------9--|-----9-----------9--|-----6-----------6--|
--------------------|--------------------|--------------------|
--7-----------------|--7-----------------|--0-----------------|

 F#sus4F#sus4/G#E7Madd13
--------------------|--------------------|--------------------|
-----------2--------|-----------2--------|-----------4--------|
--------4-----4-----|--------4-----4-----|--------6-----6-----|
-----4-----------4--|-----4-----------4--|-----6-----------6--|
--------------------|--------------------|--------------------|
--2-----------------|--4-----------------|--0-----------------|

 F#sus4F#Badd11
--------------------|--------------------|--------------------|
-----------2--------|-----------2--------|-----------5--------|
--------4-----4-----|--------3-----3-----|--------8-----8-----|
-----4-----------4--|-----4-----------4--|-----9-----------9--|
--------------------|--------------------|--------------------|
--2-----------------|--2-----------------|--7-----------------|

 Badd11
--------------------|--------------------|--------------------|
-----------5--------|-----------5--------|-----------5--------|
--------8-----8-----|--------8-----8-----|--------8-----8-----|
-----9-----------9--|-----9-----------9--|-----9-----------9--|
--------------------|--------------------|--------------------|
--7-----------------|--0-----------------|--0-----------------|

 Badd11Badd11
--------------------|--------------------|--------------------|
-----------5--------|-----------5--------|-----------5--------|
--------8-----8-----|--------8-----8-----|--------8-----8-----|
-----9-----------9--|-----9-----------9--|-----9-----------9--|
--------------------|--------------------|--------------------|
--7-----------------|--7-----------------|--0-----------------|
--------------------|--------------|--------------|--------------|
-----------5--------|--------------|--------------|--------------|
--------8-----8-----|--------------|--------------|--------------|
-----9-----------9--|--------------|--------------|--------------|
--------------------|--------------|--------------|--------------|
--0-----------------|--------------|--------------|--------------|
--------------|--------------|--------------|--------------||
--------------|--------------|--------------|--------------||
--------------|--------------|--------------|--------------||
--------------|--------------|--------------|--------------||
--------------|--------------|--------------|--------------||
--------------|--------------|--------------|--------------||



Badd11 Bmadd9 Emadd9 F# F#7 F#7sus4 F#sus4 Gadd9
variations - click chord images
Transpose chords:
Tuning:
Cool service:
View: Size:
A  A  A
Rating:
Layout:
  • Currently 1/5 Stars.
  • 1
  • 2
  • 3
  • 4
  • 5
 
Accuracy:
  • Currently 2/5 Stars.
  • 1
  • 2
  • 3
  • 4
  • 5
 
click stars to rate
Chordie recommends:
Check out JamPlay.com for online video guitar lessons
Songbook:
Login to add this song to your songbook
Support the artist
Preview/buy this song
MSN Music
Why this non-profit ad?

 
login to add comments/video/corrections