Guitar Tabs, Chords and Lyrics


Attitude    John Butler Trio



This one is played with a bottle neck slide. I've tabbed it without one.
If you really want to play it using a slide then just replace the hammers
and pulloffs with slides. Works well both ways.

Tuning - DADGAd with a capo on 2nd fret
all numbers in respect to capo

Intro/verse

d|----------------------------------------------------------------------------
A|----0h3/5-----3h5h3p0-0-----------------------------------------------------
G|------------------------0-2p0-----------------------------------------------
D|-------------------------------3p0--3-0-3/5----5---5------------------------
A|------------------------------------3-0-3/5--5---5---5----------------------
D|--000---0-----0-------0---0----0----3-0-3/5--5-------5---0------------------


d|----------------------------------------------------------------------------
A|-0--3--3--------------------------------------------------------------------
G|------0--5\4p0---2p0--------------------------------------------------------
D|---------------0-----3-0-3-0-3/5----5---5-----------------------------------
A|-------------------------3-0-3/5--5---5---5---------------------------------
D|-0--0----0-------0-------3-0-3/5--5-------5---0-----------------------------


d|------------------3/5--0----------------------------------------------------
A|-3h5h3p0-0--------0-0--0----------------------------------------------------
G|-----------0-2p0------------------------------------------------------------
D|-------------------------3-0-3/5----5---5-----------------------------------
A|-------------------------3-0-3/5--5---5---5---------------------------------
D|-0-------0---------------3-0-3/5--5-------5----0----------------------------

d|----------------------------------------------------------------------------
A|----------------------------------------------------------------------------
G|--------0--------0----------------------------------------------------------
D|--------3--------3---0---3-0-3/5----5---5-----------------------------------
A|---3--5-----3--5---------3-0-3/5--5---5---5---------------------------------
D|-0-----------------------3-0-3/5--5-------5----0----------------------------

Chorus (basically)

d|----------------------------------------------------------------------------
A|----------------------------------------------------------------------------
G|---------7-7----------------------------------------------------------------
D|---------7-7----------------------------------------------------------------
A|---0--0--0-0------3-3-3-3-3-3--3-5--5-5-5--12-12-12-12-12-------------------
D|---0--0--0-0------3-3-3-3-3-3--3-5--5-5-5--12-12-12-12-12-------------------




Important: The song above is NOT stored on the Chordie server. The original song is hosted at www.xguitar.com. Chordie works as a search engine and provides on-the-fly formatting. Chordie does not index songs against artists'/composers' will. To remove this song please click here.

This song is displayed as text-only. Transposing and tuning is only available for chordpro-songs.

Login - add to songbook

Rating click stars to rate

Layout
Accuracy

SHARE PAGE  




You need to log in to post comments