Guitar Tabs, Chords and Lyrics


Inside a Break    John Frusciante



JOHN FRUSCIANTE:INSIDE A BREAK

Album:Inside Of Emptiness
Track:03

Tabbed by Tom Woo

  P.M=================================|
e|------------------------------------|
B|---------4--------------3--------1--|
G|-------5---5----------4--------2----|     PALM MUTED
D|------5------5-------5--------3-----|      SECTION
A|---3-3---------3----5--------3------|
E|-----------------3-3------1-1-------|

This section is palm muted.After this section there is then a picked section.

e|------------------------------------|
B|---------4--------------3--------1--|
G|-------5---5----------4--------2----|   PICKED SECTION
D|------5------5-------5--------3-----|
A|---3-3---------3----5--------3------|
E|-----------------3-3------1-1-------|

After this there is the strummed section.

e|------------------------------------|
B|----4------3------1-----------------|
G|----5------4------2-----------------|   STRUMMED SECTION
D|----5------5------3-----------------|
A|----3------5------3-----------------|
E|-----------3------1-----------------|

Just strum these chords.This strumming also is the backing chords for the solo.

ORDER

Palm Muted Section    INTRO x2
                      VERSE x10
Picked Section              x2
Strummed Section            x5
Palm Muted Section          x8
Picked Section              x2
Strummed Section            x16   (including solo)


SOLO

e|----------------6--3b-----------|
B|-------4-----3------------------|
G|----------0---------------------|    b = bend
D|--------------------------------|
A|----3---------------------------|
E|--------------------------------|

Play this 7 times and then end the song on...

e|---------|
B|----4----|
G|----5----|
D|----5----|
A|----3----|


Important: The song above is NOT stored on the Chordie server. The original song is hosted at www.xguitar.com. Chordie works as a search engine and provides on-the-fly formatting. Chordie does not index songs against artists'/composers' will. To remove this song please click here.

This song is displayed as text-only. Transposing and tuning is only available for chordpro-songs.

Login - add to songbook

Rating click stars to rate

Layout
Accuracy

SHARE PAGE  




You need to log in to post comments