Guitar Tabs, Chords and Lyrics


Niandra Lades: As Can Be   John Frusciante

e------------------0------------------------------------------------------------


B--0-------------------------------0--0--0---0--0-------------------------------


G----2p0--0--------------------------3--3--3---3---2p0--------------------------

D---------2------------------------------------------2--------------------------
A-------------------------------------------------------------------------------
E--------------x-x-x---x-x-x--------------------------------x-x-x-x------------
e----------------------------------------------------------------------0-------
B--------0---0---0--0---0------3-------------------3---3--3---3---3--------0----
G----------3---3--3---3---2p0----------------------------------------------------
D--------------------------------x---x---x--x-----------------------------------
A-------------------------------------------------------------------------------
E--x-x-x------------------------------------------------------------------------
[Bmin]When you got a cl[D]ean smile
[A]You can walk with s[F#]tyle
[G]You can be na[A]ked with no [D]bra[F#]in
[G]In your (blank) i'm c[D]oming
And I l[G]ove [Bmin]you, I always h[G]ad [Bmin]to
Thank G[G]od I found y[D]ou
Beautiful talking well it w[D]as to [Bmin]me
[G]Do you s[Bmin]ee? There's no m[G]ore [D]me
I'm[G] happy as c[D]an be  [Bmin]
I'm[G] happy as c[D]an be[Bmin]

Important: The song above is NOT stored on the Chordie server. The original song is hosted at www.xguitar.com. Chordie works as a search engine and provides on-the-fly formatting. Chordie does not index songs against artists'/composers' will. To remove this song please click here.

Text color:
Chord color:
Chord grids: 
Font size:    
Page size: 

A Bmin D F# G
variations - click chord images

Login - add to songbook

Transpose chords

Tuning

Rating click stars to rate

Layout
Accuracy

SHARE PAGE  




You need to log in to post comments