Guitar Tabs, Chords and Lyrics


Niandra Lades: Big Takeover    John Frusciante



================
  < Big Takeover >
  ================

by John Frusciante
from "Niandra Lades and Usually just a T-shirt"

Version 1 :

Transcribed by Ian "STOAT" Kendrew.
P.S Thanx to Thatyou, this was only possible with him.

Ok, this is an attempt at the lead guitar part which plays throughout.

INTRO.

E---------------------------------------------------------------------------------------16---
B---16---19---16------------------------------------------------------15---------------------
G---------------------18---16---18p16~13---13---13---13---13-------13---13-------------------
D--------------------------------------------------------------------------------------------
A--------------------------------------------------------------------------------------------
E--------------------------------------------------------------------------------------------

E---14---------------------------------------------------------------------------------------
B-------16-----------------------------------------------------------------------------------
G------------16---12---13---16---16---15---13------------------------------------------------
D--------------------------------------------------------------------------------------------
A--------------------------------------------------------------------------------------------
E--------------------------------------------------------------------------------------------


VERSE

E-------16----------------16---------------------16------------------------------------------
B------------16-----------------16----------------------16-----------------------------------
G---13-------------13---------------------13---------------------16-----15----13-------------
D--------------------------------------------------------------------------------------------
A--------------------------------------------------------------------------------------------
E--------------------------------------------------------------------------------------------

CHORUS

E--------------------------------------------------------------------------------------------
B---12---10---12---10---12---10---10~~17-17-17-17-17-17---19-19-19-19-19-19------------------
G--------------------------------------------------------------------------------------------
D--------------------------------------------------------------------------------------------
A--------------------------------------------------------------------------------------------
E--------------------------------------------------------------------------------------------

E-------16--------------16-------------------------------------------------------------------
B-----------16----------------16---14---16---------------------------------------------------
G---13-----------13----------------------------16---15---13----------------------------------
D--------------------------------------------------------------------------------------------
A--------------------------------------------------------------------------------------------
E--------------------------------------------------------------------------------------------

INSTRUMENTAL:

E---19---18---16---16------------------------------------------------------------------------
B--------------------------19---16--------16-------------------------------------------------
G-------------------------------------16------------------16---15---13-----------------------
D--------------------------------------------------------------------------------------------
A--------------------------------------------------------------------------------------------
E--------------------------------------------------------------------------------------------

*********************************************************************************************
Version 2 :

Transcribed by: Thatyou

Intro:
Play this chord
for a while
|-4------------------------x-----x----------------------------
|-4------------------------x-----x----------------------------
|-4------------6--4--------x-----x----------------------------
|-6-----------------6------4-----5----------------------------
|-6------------------------4-----5----------------------------
|-4------------------------2-----3----------------------------

Verse:You get the idea
|-4------7-----6----------------------------------------------
|-4------7-----6----------------------------------------------
|-4------8-----6----------------------------------------------
|-6------9-----8----------------------------------------------
|-6------9-----8----------------------------------------------
|-4------7-----6----------------------------------------------

Bridge:
X3      then  once again, you can figure it out
|-x---x---|-0----x---10---------------------------------------
|-x---x---|-0----9---10---------------------------------------
|-x---x---|-1----9---11---------------------------------------
|-9---7---|-2----9---12---------------------------------------
|-9---7---|-2----7---12---------------------------------------


Important: The song above is NOT stored on the Chordie server. The original song is hosted at www.xguitar.com. Chordie works as a search engine and provides on-the-fly formatting. Chordie does not index songs against artists'/composers' will. To remove this song please click here.

This song is displayed as text-only. Transposing and tuning is only available for chordpro-songs.

Login - add to songbook

Rating click stars to rate

Layout
Accuracy

SHARE PAGE  




You need to log in to post comments