Guitar Tabs, Chords and Lyrics


Mascara   John Frusciante

-part 1 (there's a...)--------------------



-part 4 (people ought to...)--------------

-part 7 (..if I could be...)--------------

   [Em]                                 [Am]                                              
e|-------------------------------------------------------------------|
B|-13p12----12----------------------15p13-12-13--12-----------12-----|
G|-------12-----12--------12------------------------12----12-----12--|
D|-----------------14-12-----14------------------------14------------|
A|-------------------------------------------------------------------|
E|--------------------------(12)(0)----------------------------------|

   [Em]                                [Am]             [Cmaj7]                                  
e|-------------------------------------------------------------------|
B|-13p12----12---------------------15p13-12-13--12-----------12------|
G|-------12-----12--------12b-r--------------------12----12------12--| bend
D|-----------------14-12-------14---------------------14-------------| 1/2
A|-------------------------------------------------------------------| step
E|-------------------------------------------------------------------|

   [B]                                                                               
e|------------------|
B|------------------|   btw: this is identical to the 'outside space'
G|-12-11---12-11----|   main lick.
D|-------9-------9--|
A|------------------|
E|------------------|

Mascara
Words and Music by John Frusciante
** As translated & updated by Shelly Griska **

There's a belt of sun dripping through a porthole
In a set design
Can you read your name?
It's been so long since we blew from the inside
So where have you been since you fell off the flat edge
Of the world under an ugly sky
You've been lying by
But they meant you, dance under the moonlight
Do what you think is the sum
Of your own flesh and blood
Above there's small birds gone to trembling
In for thousands of your years

Voice 1: You felt like crystal in your thighs
Voice 2: You get four red candles

Voice 2: On the table with your penis by your eyes
Voice 1: You're the one that makes me realize

Voice 1: Big water flowing through to tomorrow
Voice 2: Through to your vacation
Voice 1: Apples and cake must have been your misstake
Voice 2: ? (something about "a gallon of wine") but the smile you send in
my direction
Both: Makes me feel like I'm alive
Voice 1: You're hidden by your wooden legs
Voice 2: You're my kind, You're my kind

Voice 2: You always make me feel like a moon in my life

Voice 1: Stay here in down at the world's edge, for a time

Voice 2: It always makes me feel good to know you're alive, wrapping your
ties

Voice 1: Down by the whirlpool, I finally realized you must have bitten
your snake, your little dark house

Voice 1: I've been insane well the time is slow

Voice 2: I've been to a society where you can't see yourself and you can't
feel sunshine

Voice 2: And if you see me roaming the hillside won't you come along? It's
all gone to the top of yourself. You'll always be alone.

Voice 1: The Pope don't matter when the pawn is your sea, don't you agree?

Voice 2: I like you in my love, makes me feel good just to know I can love
someone like you. They'll make it hard for you choose. I can understand but
when you see the tears coming you close your eyes. To you I'm sure it's no
surprise that I could be one of the dead. Thank god my underwear's full of
lead without you. Without you.

Voice 1: When you're around I'm wound around your thumb. You wanna be numb
inside the gun. All your different delights are one big fight against the
baby inside that you've mistaken for pain.


-----------------------------------------------------------------------------


Mascara
Words and Music by John Frusciante
** As translated by Rick Chapman **

There's a belt of sun dripping through a porthole
In a set design
Can you read your name?
It's been so long since we blew from the inside
So where have you been since you fell off the flat edge

Of the world under ugly sky
You've been lying right
But they meant you, dance under the moonlight

Do what you think is the sum
Of your own flesh and blood
Above there's small birds gone to trembling
In for thousands of your years

Voice 1: You felt like history in your thighs
Voice 2: You get four red candles
Voice 2: On the table with your penis by your eyes
Voice 1: Your the one that makes me realize

Voice 1: Big water flowing through to tomorrow
Voice 2: Through to your vacation
Voice 1: Apples and cake must have been your state
Voice 2: Forced between the sound and of whine but the smile was in that
direction

Both: Makes me feel like I'm alive

Voice 1: They're hidden by your wooden legs
Voice 2: You're my kind, You're my kind
Voice 2: You always make me feel like a moon in my life all the time
Voice 1: Stay here in down at the world tear

Voice 2: It always makes me feel good to know you're alive, wrapping your
ties
Voice 1: Down by the whirlpool, you finally realized you must tell built in
your snake,
your little dark house

Voice 1: I've been insane well the time is slow
Voice 2: I've been to a society where you can't see yourself and you can't
feel sunshine
Voice 2: And if you see me roaming the hillside won't you come along? It's
all gone to
the top of yourself. You'll always be alone.
Voice 1: The Pope don't matter when the pawn is your sea, don't you agree?
Voice 2: I like you in my love, when it makes when well it feels good just
to know I can
love someone I can, they'll make it hard for you choose. I can understand
but when you
see creation come any close your eyes and to you I'm sure it's no surprise.
Voice 1: When I'm around I'm wound around your thumb. You wanna be numb...
inside the gun.
All your billboards in lights are one big...
Voice 2: That I could be one of the dead, thank God my underwear's full of
love without you.
Voice 1: fight against the baby inside that you've mistaken for pain.

Voice 2: Without You

MASCARA
John Frusciante's Niandra Lades and usually just a T-shirt

for the lyrics, visit http://membres.tripod.fr/Fea

F#m(no root) A
1 e & e 2 e & e 3 e & e 1 e & e 2 e & e 3 e & e
|-------------------------|-------------------------|
|-2---2-2-2---2---2-2-2-x-|-2---2-2-2---2---2-2-2-x-|
|-3---3-3-3---3---3-3-3-x-|-2---2-2-2---2---2-2-2-x-|
|-4---4-4-4---4---4-4-4-x-|-2---2-2-2---2---2-2-2-x-|
|-4---4-4-4---4---4-4-4-x-|-0---0-0-0---0---0-0-0-x-|
|-------------------------|-------------------------|


[B]  1 e & e 2 e & e 3 e & e [Bm]  1 e & e 2 e & e 3 e & e
|-------------------------|-------------------------|
|-4-----4-4-4-4-----x-4-x-|-3-----3-3-3-3-3-3-3-3-x-|
|-4-----4-4-4-4-----x-4-x-|-4-----4-4-4-4-4-4-4-4-x-|
|-4-----4-4-4-4-----x-4-x-|-4-----4-4-4-4-4-4-4-4-x-|
|-2-----2-2-2-2-----x-2-x-|-2-----2-2-2-2-2-2-2-2-x-|
|-------------------------|-------------------------|


[A]  1 e & e 2 e & e 3 e & e [E]  1 e & e 2 e & e 3 e & e
|-------------------------|-------------------------|
|-2-----2-2-x-2-----2-2-x-|-------------------------|
|-2-----2-2-x-2-----2-2-x-|-1-----1-1-x-1-----1-1-x-|
|-2-----2-2-x-2-----2-2-x-|-2-----2-2-x-2-----2-2-x-|
|-0-----0-0-x-0-----0-0-x-|-2-----2-2-x-2-----2-2-x-|
|-------------------------|-0-----0-0-x-0-----0-0-x-|


[B]  1 e & e 2 e & e 3 e & e [F#]  1 e & e 2 e & e 3 e & e
|-------------------------|-------------------------|
|-4-----4-4-x-4-----4-4-x-|-2-----2-2-x-2-x-2-x-2-x-|
|-4-----4-4-x-4-----4-4-x-|-3-----3-3-x-3-x-3-x-3-x-|
|-4-----4-4-x-4-----4-4-x-|-4-----4-4-x-4-x-4-x-4-x-|
|-2-----2-2-x-2-----2-2-x-|-4-----4-4-x-4-x-4-x-4-x-|
|-------------------------|-2-----2-2-x-2-x-2-x-2-x-|


[G]  1 e & e 2 e & e 3 e & e [B5]  1 e & e 2 e & e 3 e & e
|-3-----3-3-x-3-----3-3-x-|-------------------------|
|-3-----3-3-x-3-----3-3-x-|-4-----4-4-x-4-----4-4-x-|
|-0-----0-0-x-0-----0-0-x-|-4-----4-4-x-4-----4-4-x-|
|-0-----0-0-x-0-----0-0-x-|-4-----4-4-x-4-----4-4-x-|
|-2-----2-2-x-2-----2-2-x-|-2-----2-2-x-2-----2-2-x-|
|-3-----3-3-x-3-----3-3-x-|-------------------------|


[C5]  1 e & e 2 e & e 3 e & e[D#)5]   1 e & e 2 e & e 3 e & e
|-------------------------|-------------------------|
|-------------------------|-------------------------|
|-5-----5-5-x-5-----5-5-x-|-8-----8-8-8-%-8---8-8-8-|
|-5-----5-5-x-5-----5-5-x-|-8-----8-8-8---8---8-8-8-|
|-3-----3-3-x-3-----3-3-x-|-6-----6-6-6---6---6-6-6-|
|-------------------------|-------------------------|


[D#)5]  1 e & e 2 e & e 3 [F5]e & e  [G5] 1 e & e 2 e & e 3 e & e
|-------------------------[-------------------------|
|-------------------------[-------------------------|
|-8-8-8-8-8-8-8-x-x-10x-x-[.12--1212121212--12121212|
|-8-8-8-8-8-8-8-x-x-10x-x-[.12--1212121212--12121212|
|-6-6-6-6-6-6-6-x-x-8-x-x-[-10--1010101010--10101010|
|-------------------------[-------------------------|


3x
[G5]  1 e & e 2 [D#)5]e & e 3[F5] e & e [D#)5]  1 e & e 2 e & e 3 e & e
|-------------------------]-------------------------|
|-------------------------]-------------------------|
|-12--121212x-8---x-10--x.]-8---8-8-8-8-8---8-8-8-8-|
|-12--121212x-8---x-10--x.]-8---8-8-8-8-8---8-8-8-8-|
|-10--101010x-6---x-8---x-]-6---6-6-6-6-6---6-6-6-6-|
|-------------------------]-------------------------|


[D#)5]  1 e & e 2 e & e 3 [F5]e & e  [G5] 1 e & e 2 e & e 3 e & e
|-------------------------[-------------------------|
|-------------------------[-------------------------|
|-8-8-8-8-8-8-8-x-x-8-x-x-[.12--1212121212--12121212|
|-8-8-8-8-8-8-8-x-x-8-x-x-[.12--1212121212--12121212|
|-6-6-6-6-6-6-6-x-x-8-x-x-[-10--1010101010--10101010|
|-------------------------[-------------------------|


3x
[G5]  1 e & e 2 [D#)5]e & e 3[F5] e & e [D#)5]  1 e & e 2 e & e 3 e & e
|-------------------------]-------------------------|
|-------------------------]-------------------------|
|-12--121212x-8---x-10--x.]-8---8-8-8-8-8---8-8-8-8-|
|-12--121212x-8---x-10--x.]-8---8-8-8-8-8---8-8-8-8-|
|-10--101010x-6---x-8---x-]-6---6-6-6-6-6---6-6-6-6-|
|-------------------------]-------------------------|


[D#)5]  1 e & e 2 e & e 3 e & e
|-------------------------|
|-------------------------|
|-8---8-8-8---8---8-8-8-8-|
|-8---8-8-8---8---8-8-8-8-|
|-6---6-6-6---6---6-6-6-6-|
|-------------------------|


==========================================================
Rhythm 1......
1 e & e 2 e & e 3 e & e 4 e & e 1 e & e 2 e & e 3 e & e 4 e & e
|-----4-------4-------4-------4---|-----4-------4-------4-------4---|
|-----4-------4-------4-------4---|-----4-------4-------4-------4---|
|---------------------------------|---------------------------------|
|-1---------------1---------------|-1---------------1---------------|
|-1-------1-------1-------1-------|-1-------1-------1-------1-------|
|---------1---------------1-------|---------1---------------1-------|


1 e & e 2 e & e 3 e & e 4 e & e 1 e & e 2 e & e 3 e & e 4 e & e
|-----4-------4-------------------|-----4-------4-------4-------3~--|
|-----4-------4-------5-------4---|-----4-------4-------4-------2~--|
|---------------------4-------4---|---------------------------------|
|-1---------------2-------4-------|-1---------------1---------------|
|-1-------1-------2-------2-------|-1-------1-------1-------1-------|
|---------1-----------------------|---------1---------------1-------|


end of Rhythm 1.................
1 e & e 2 e & e 3 e & e 4 e & e 1 e & e 2 e & e 3 e & e 4 e & e
|-----4-------4-------------------|-----4-------4-------4-------4---|
|-----4-------4-------5-------4---|-----4-------4-------4-------4---|
|---------------------4-------4---|---------------------------------|
|-1---------------2-------4-------|-1---------------1---------------|
|-1-------1-------2-------2-------|-1-------1-------1-------1-------|
|---------1-----------------------|---------1---------------1-------|


Rhythm 2.....
[E]  1 e & e 2 e & e 3 e & e 4 e & e [B]  1 e & e 2 e & e 3 e & e 4 e & e
|-0---0-0-0-0-0---0-0-0-0-0---0-0-|---------------------------------|
|-0---0-0-0-0-0---0-0-0-0-0---0-0-|-4---4-4-4-4-4---4-4-4-4-4---4-4-|
|-1---1-1-1-1-1---1-1-1-1-1---1-1-|-4---4-4-4-4-4---4-4-4-4-4---4-4-|
|-2---2-2-2-2-2---2-2-2-2-2---2-2-|-4---4-4-4-4-4---4-4-4-4-4---4-4-|
|-2---2-2-2-2-2---2-2-2-2-2---2-2-|-2---2-2-2-2-2---2-2-2-2-2---2-2-|
|-0---0-0-0-0-0---0-0-0-0-0---0-0-|---------------------------------|


[E]  1 e & e 2 e & e 3 e & e 4 e & e [B]  1 e & e 2 e[A] & e 3 e & e 4 e[G] & e
|-0---0-0-0-0-0---0-0-0-0-0---0-0-|-----------------------------3---|
|-0---0-0-0-0-0---0-0-0-0-0---0-0-|-4---x-4-4-x-2---2---x-2-2-x-3---|
|-1---1-1-1-1-1---1-1-1-1-1---1-1-|-4---x-4-4-x-2---2---x-2-2-x-0---|
|-2---2-2-2-2-2---2-2-2-2-2---2-2-|-4---x-4-4-x-2---2---x-2-2-x-0---|
|-2---2-2-2-2-2---2-2-2-2-2---2-2-|-2---x-2-2-x-0---0---x-0-0-x-2---|
|-0---0-0-0-0-0---0-0-0-0-0---0-0-|-----------------------------3---|


End of Rhythm 2............
  1 e & e 2 e & e 3 e & e 4 e & e  [F#] 1 e & e 2 e & e 3 e & e 4 e & e
|-3-3-3-3-3---3-3-3-3-3---3---x-x-|---------------------------------|
|-3-3-3-3-3---3-3-3-3-3---3---x-x-|---------------------------------|
|-0-0-0-0-0---0-0-0-0-0---0---x-x-|-3---x-x-3---3-3-3-3-3-3-3-3-3-3-|
|-0-0-0-0-0---0-0-0-0-0---0---x-x-|-4---x-x-4---4-4-4-4-4-4-4-4-4-4-|
|-2-2-2-2-2---2-2-2-2-2---2---x-x-|-4---x-x-4---4-4-4-4-4-4-4-4-4-4-|
|-3-3-3-3-3---3-3-3-3-3---3---x-x-|-2---x-x-2---2-2-2-2-2-2-2-2-2-2-|


+ Rhythm 1

+ Rhythm 2

Rhythm 3 ........
B5 D5 A5 G5(II) (3x)
1 e & e 2 e & e 3 e & e 4 e & e 1 e & e 2 e & e 3 e & e 4 e & e
[---------------------------------|---------------------------------]
[---------------------------------|---------------------------------]
[.4-----4-4-x-7---7-7-7-7-7-7-7-x-|--------------------------------.]
[.4-----4-4-x-7---7-7-7-7-7-7-7-x-|-7-----x-7-x-5---5-5-5-5-5-5-5-x-]
[-2-----2-2-x-5---5-5-5-5-5-5-5-x-|-7-----x-7-x-5---5-5-5-5-5-5-5-x-]
[---------------------------------|-5-----x-5-x-3---3-3-3-3-3-3-3-x-]


End of Rhythm 3
[F#]  1 e & e 2 e & e 3 e & e 4 e & e   1 e & e 2 e & e 3 e & e 4 e & e
|---------------------------------|---------------------------------|
|---------------------------------|---------------------------------|
|---------------------------------|-11111111111111111111111111111111|
|-4-----4-4-4---4-4-4-4-4-4-4-4-4-|-11111111111111111111111111111111|
|-4-----4-4-4---4-4-4-4-4-4-4-4-4-|-9-9-9-9-9-9-9-9-9-9-9-9-9-9-9-9-|
|-2-----2-2-2---2-2-2-2-2-2-2-2-2-|---------------------------------|



+ Rhythm 3

1 e & e 2 e & e 3 e & e 4 e & e 1 e & e 2 e & e 3 e & e 4 e & e
|---------------------------------|---------------------------------|
|---------------------------------|---------------------------------|
|---------------------------------|---------------------------------|
|---------0-----------2---0---4---|-----------------0---2---0-------|
|-2---2-------2-------------------|-----2---2---2---------------2---|
|---------------------------------|---------------------------------|


1 e & e 2 e & e 3 e & e 4 e & e 1 e & e 2 e & e 3 e & e 4 e & e
|---------------------------------|---------------------------------|
|---------------------------------|---------------------------------|
|---------------------------------|---------------------------------|
|-4-----------------------0-------|---------------------------------|
|-----4b--4---0-------0-----------|----------------------------0----|
|-----------------------------3---|-----------------------3-3-------|


===================================================================
Outro
[Em]  1   e   &   e   2   e   &   e   3   e   &   e   4   e   &   e
|-----------------------------------------------------------------|
|-13--12------12--------------------------------------------------|
|---------12--------------12----------------------12--------------|
|-----------------------------14--12--14--------------14----------|
|-----------------------------------------------------------------|
|-----------------------------------------------------------------|


[Am]  1   e   &   e   2   e   &   e   3   e   &   e   4   e   &   e
|-----------------------------------------------------------------|
|-15--13--12--13----------12------------------12------------------|
|-----------------------------12------12--------------12----------|
|---------------------------------14------------------------------|
|-----------------------------------------------------------------|
|-----------------------------------------------------------------|


[G]  1   e   &   e   2   e   &   e   3   e   &   e   4   e   &   e
|-----------------------------------------------------------------|
|-13--12------12--------------------------------------------------|
|---------12--------------12------------------12b-----------------|
|-----------------------------14--12--14--------------14----------|
|-----------------------------------------------------------------|
|-----------------------------------------------------------------|


[Am]  1   e   &   e   2   e   &   e [C]  3   e   &   e   4   e   &   e
|-----------------------------------------------------------------|
|-15--13--12--13----------12------------------12------------------|
|-----------------------------12------12--------------12----------|
|---------------------------------14------------------------------|
|-----------------------------------------------------------------|
|-----------------------------------------------------------------|


Important: The song above is NOT stored on the Chordie server. The original song is hosted at www.xguitar.com. Chordie works as a search engine and provides on-the-fly formatting. Chordie does not index songs against artists'/composers' will. To remove this song please click here.

Text color:
Chord color:
Chord grids: 
Font size:    
Page size: 

A Am B B5 Bm C C5 Cmaj7 E Em F# F5 G G5
variations - click chord images

Login - add to songbook

Transpose chords

Tuning

Rating click stars to rate

Layout
Accuracy

SHARE PAGE  




You need to log in to post comments