Guitar Tabs, Chords and Lyrics


Niandra Lades: Running Away into You    John Frusciante



Running Away Into You
By John Frusciante
Transcribed by: Itay Auerbach
Email: itay7@newmail.net


Strum Bm at the start...

--------|---------------------------|----------------------|------------------
-----7--|-------10-------10------7--|-------10------10--7--|--Strum--------7--
---7----|----11--------9-------7----|----11-------9-----7--|---Bm--------7----
-9------|-12--------11-------9------|-12-------11-------9--|-----------9------
--------|---------------------------|----------------------|------------------
--------|---------------------------|----------------------|------------------
                                                                              

---------------------------|----------------------|---------------------------
-------10-------10------7--|-------10------10--7--|--Strum The Chord Bm For---
----11--------9-------7----|----11-------9-----7--|---------------------------
-12--------11-------9------|-12-------11-------9--|----------Awhile----------
---------------------------|----------------------|---------------------------
---------------------------|----------------------|---------------------------
                                                                              

-----------|-------10-------10-----7--|-------10-------10--x--|---------------
--------12-|----12-------12------8----|----12-------12-----x--|---------------
-----11----|-12-------11-------9------|-12-------11--------x--|----Strum Bm---
--12-------|--------------------------|-----------------------|---------------
-----------|--------------------------|-----------------------|---------------
-----------|--------------------------|-----------------------|---------------
                                                                              

--------|-----------------------------|-------------------------|-------------
-----7--|-------10-------10--------7--|---------10-------10--7--|--strum-Bm---
---7----|----11--------9---------7----|------11--------9-----7--|-------------
-9------|-12--------11-----11--9------|-9-12--------11-------9--|-and repeat--
--------|-----------------------------|-------------------------|-------------
--------|-----------------------------|-------------------------|------------- 


Important: The song above is NOT stored on the Chordie server. The original song is hosted at www.xguitar.com. Chordie works as a search engine and provides on-the-fly formatting. Chordie does not index songs against artists'/composers' will. To remove this song please click here.

This song is displayed as text-only. Transposing and tuning is only available for chordpro-songs.

Login - add to songbook

Rating click stars to rate

Layout
Accuracy

SHARE PAGE  




You need to log in to post comments