Guitar Tabs, Chords and Lyrics


Regret    John Frusciante



John frusciante
-------------------------------------------------------------------------------------
   ********
   *REGRET*
   ********

INTO        X2		X2
|-----------------|--------------(0)-|
|---------1-------|---------1--------|
|-------0---0-----|-------0---0------|
|-----2-------2---|-----2-------2----|
|-3-3-----------3-|-3-3--------------|
|-----------------|(ONLY TE 2NDTIME)-|

|---------0---------------0--------|
|-------1---1-----------1---1------|
|-----2---------------0------------| x 2
|---2---------------2--------------|
|-0-----------0-2-3-----------3-2--|
|----------------------------------|

|----------------------------------|
|-------3----------------1---------|
|----------------------2---2-------|
|-----5---5----------3-------3-----|
|---5-------5------------------3---|
|-3-----------3-2-1--------------1-|
        X3
|-----0---|----0---3---|
|-----1---|----1---0---|
|-----2---|----2---0---|
|-----2---|----2---0---|
|-0-0-0---|--0-0-2-2---|
|---------|------------|

C	G	 Am
I    REGRET      MY PAST
F		
STAY ALONE
C    G
STAY ALONE



Important: The song above is NOT stored on the Chordie server. The original song is hosted at www.xguitar.com. Chordie works as a search engine and provides on-the-fly formatting. Chordie does not index songs against artists'/composers' will. To remove this song please click here.

This song is displayed as text-only. Transposing and tuning is only available for chordpro-songs.

Login - add to songbook

Rating click stars to rate

Layout
Accuracy

SHARE PAGE  




You need to log in to post comments