Guitar Tabs, Chords and Lyrics


Song to Sing When I'm Lonely   John Frusciante

     [B]               [D#m]         [C#]        [G#m]                                                  
E ---7-----2--------6--------6--------4-------
B ---7-----4--------7--------6--------4-------
G ---8-or--4--------8--------6--------4-------
D ---9-----4--------8--------6--------6-------
A ---9-----2--------6--------4--------6-------
E ---7-----------------------4----------------


Chorus Chords
     [F#]        [C#]         [G#m]                                                                 
E ---2-------4---------4-------------
B ---2-------6---------4------------
G ---3-------6---------4------------
D ---4-------6---------6------------
A ---4-------4---------6------------
E ---2-----------------4------------
B---------------- = keep playing B chord for all those lyrics


Intro: B D#m
E --------------------------------6--------------------------------
B -----------7-----------------7------7-----------------9----------
G --------8-----8-----------8------------8-----------10-----10-----
D -----9----------9-----------------8-------8-----11-----------11--
A ----------------------6--------------------------------11--------
E --7---------7-----7--------------------------9-------------------
E ----------4------------4-----------4--------------------
B ---------------4------------4-----------4------7--------
G -----4-------------4------------4-----------4-----------
D -------6------------------------------------------------
A ------------6-------------------------6-----------------
E --4-----------------------4-----------------------------



A [B]song to play when I'm [D#m]lonely
W[C#]in and never play a [G#m]game again
N[B]o one to face when I'm [D#m]falling,
C# G#m....................
Holding tight to dreams that never end

I'll be [F#]you,  I [C#]do,  I'll be [G#m]you
[G#m]No one's afraid to be [F#]called, [C#]by, ano[G#m]ther name
[G#m]No one dares to be p[F#]ut, do[C#]wn, where they [G#m]don't belong
[G#m]Nowhere's anyones [F#]reas[C#]on
[G#m]Everything dying and [F#]leavi[C#]ng

B-----------------------------------        F#  G#m

Out with these faults and you make me a baby
B----------------------------------  F#   G#m

Faking a movement by no one seeing it
[F#]No one [G#m]always finds [F#]peace [G#m]flung
[F#]No one [G#m]chooses to b[F#]eat my [G#m]pride down

[B]Symbols pierce right [D#m]through me
[C#]People fail to be [G#m]drawn up
[B]Sunlight to fate accuma[D#m]lates
C# G#m............
Loving pain to be clung to

By [F#]lumin[C#]ous bo[G#m]dies
[G#m]Only waiting for [F#]long [C#]signs to be [G#m]wrong
(strum muted strings)
And true to us
[G#m]Out of place in my [F#]own [C#]time
[G#m]Drowning thinking that [F#]I'm [C#]dry

B----------------------------                    F#  G#m

Holding on to facts that'll never be proven
B----------------------------                    F#  G#m

Faking an action cause no one's looking
[F#] Hello [G#m]when I'm [F#]cras[G#m]hing
[F#]Feeling nothing [G#m]when my life's [F#]flashing be[G#m]fore my eyes
F#, C# G#m
You should of threw me down
^
G#m |
Is the content so much <--- repeat those last 2 lines for the rest of the song

Important: The song above is NOT stored on the Chordie server. The original song is hosted at www.xguitar.com. Chordie works as a search engine and provides on-the-fly formatting. Chordie does not index songs against artists'/composers' will. To remove this song please click here.

Text color:
Chord color:
Chord grids: 
Font size:    
Page size: 

B C# D#m F# G#m
variations - click chord images

Login - add to songbook

Transpose chords

Tuning

Rating click stars to rate

Layout
Accuracy

SHARE PAGE  




You need to log in to post comments