Guitar Tabs, Chords and Lyrics


Water    John Frusciante



this song is great

e|----7--5--7--
b|-9--7--5--7--
g|-9--8--6--8--
d|-9--9--7--9-- x 4 for the intro
a|-7--9--7--9--
e|-------------

Heres the funk you were waitin for on the album

Verse

e|----4-4----------          -7-7-7-
b|----4-4----------          -7-7-7-
g|----4-4---4--6---          -8-8-8-
d|----------4--6--- x 4 then -------
a|---------4-------          -------
e|-4---------------          -------

Towards the end of the song this starts to happen

e|----------0-
b|-5--9--4--2-
g|-6--9--4--2-
d|-6--9--4--2-
a|-4--7--2--0-
e|----0-------

Solo at the end

e|-14b-14b-14b-14b-14b-14b-14b-14b-14b-14-12-11-12-14b-14-12-11-12-
b|-----------------------------------------------------------------
g|-----------------------------------------------------------------
d|-----------------------------------------------------------------
a|-----------------------------------------------------------------
e|-----------------------------------------------------------------

e|---------------12-----------------
b|-17b-14b--------------------------
g|---------13-14b---14-13---13b13---
d|-------------------------------14-
a|----------------------------------
e|----------------------------------

e|--------------------------------
b|-----------------------12-------
g|----9-13---9-13---9-13---13----- x 4 with variation at the end of
d|-11-----13------13---------11b11     each one
a|--------------------------------
e|--------------------------------

e|-14b14-12-14b-14b14-12-14b-12------
b|-----------------------------------
g|-----------------------------14-13-
d|-----------------------------------
a|-----------------------------------
e|-----------------------------------

and thats it



Important: The song above is NOT stored on the Chordie server. The original song is hosted at www.xguitar.com. Chordie works as a search engine and provides on-the-fly formatting. Chordie does not index songs against artists'/composers' will. To remove this song please click here.

This song is displayed as text-only. Transposing and tuning is only available for chordpro-songs.

Login - add to songbook

Rating click stars to rate

Layout
Accuracy

SHARE PAGE  




You need to log in to post comments