Guitar Tabs, Chords and Lyrics


Height Down   John Frusciante

|--0-0-0---3p1-1-3p1-1-3--|


|--5p3h5-1-1---1-1---1-1--|


|*-5-5-5-0-0---0-0---0-0-*|

|*-----------------------*|
|-------------------------|
|-------------------------|
[C]I'll  [Amin]send,
[C]Flo-[Amin]wers,
[C]A-[Amin]gain,
[C]For [Amin]her.
[C]Miles  and  [Amin]castles
[C]Sand  castle  [Amin]guests
[C]A  gift  [Amin]described
Dis[C]guised  as  my  [Amin]rival.
[G]     [F]     [Amin]                           
(A really fast rap)
Life your life, no regrets, cycles did you hear,
dirty boys always seem.... (oh forget it!)

[C]Murde[Amin]ress

[C]Helping [Amin]hands
[C]In our [Amin]soul be [C]willf[Amin]ul
[C]Vader [Amin]says  (what the hell?!)
[C](St)-capturing [Amin]hearts
[C]Jinx you [Amin]give it [C]to her [Amin]falling
JOHN FRUSCIANTE: -

[G]Fanta I [F]sense   [Amin]       (what the hell?!)

[G](weird a[F]ss solo)[Amin]
[G]        [F]        [Amin]                     
Then, the song changes:
|-------5-----------5|------------------|
|-------6-----------6|------------------|
|*--7-7---7-7-7-7-7--|-----------------*|
|*--7-7---7-7-7-7-7--|-10-10-10--------*|
|---5-5---5-5-5-5-5--|--8--8--8--8-8-8--|
|--------------------|-----------6-6-6--|


That is repeated for ages.


Then it changes to this:
|---------2---5-|-----------|---------|
|--1-x-1--3---6-|--1-----1--|---------|
|*-2-x-0--2---5-|--0--0--2--|--------*|
|*-2-x-2--------|--2--0--3--|--------*|
|------3--------|--3--2--3--|---------|
|---------------|-----3--1--|---------|



From here on, its pretty layered. I tried to keep it simple
|------------------------------------|
|--3------3-----3-----3-----3--------|
|----5-5----5-5---5-5---5-5----------|
|------------------------------------|
|------------------(repeat as needed)|
|------------------------------------|



Outro ( 2 guitars at once )

guitar 1
|---------------------------------------|
|---------------------------------------|
|-----2-------5--------2-------2~5~2----|
|-0-0---0-3-3---3--0-0---0-3-3-------3--|
|---------------------------------------|
|---------------------------------------|

guitar 2 ( repeat these last two notes)
|-3------5------|---3-5----------||-------
|---6------5-6--|-------3-5-5-6--||--6-5--
|-----5---------|-5-------------*||-------
|---------------|---------------*||-------
|---------------|----------------||-------
|---------------|----------------||-------


Important: The song above is NOT stored on the Chordie server. The original song is hosted at www.xguitar.com. Chordie works as a search engine and provides on-the-fly formatting. Chordie does not index songs against artists'/composers' will. To remove this song please click here.

Text color:
Chord color:
Chord grids: 
Font size:    
Page size: 

Amin C F G
variations - click chord images

Login - add to songbook

Transpose chords

Tuning

Rating click stars to rate

Layout
Accuracy

SHARE PAGE  




You need to log in to post comments