Guitar Tabs, Chords and Lyrics


Poppy Man    John Frusciante



[***********]
    [ Poppy Man ]
    [***********]

by John Frusciante
from "Smile from the streets you hold"

Transcribed by: Ian "STOAT" Kendrew.


Intro Gtr 1.
                                                                (2-15 seconds)
E---------------------(12)------------------------------------
B-------------------------------------------------------------
G--------------14---------------------------------------------
D-------(12)------------------------------------7-7-7-7-7-----
A-(x)-------------------------------------------7-7-7-7-7-----
E-(12)------------------------12bu13---------5-5-5-5-5--------

Gtr 1 improvise this throughout 15-45 seconds

E--------------------------------------       -----------------------------------------
B--------------------------------------       -----------------------------------------
G--------------------------------------  AND  -----------------------------------------
D--------------------------9----12-----       --------------------------------19---22--
A-------------10----12-----------------       -------------------20---22---------------
E-10---12------------------------------       ------20---22----------------------------

Gtr 1  (45-47)           (47-50)

E----------------------------------------------------------------
B----------------------------------------------------------------
G------9---------------------------------------------------------
D----9--------------------2--------------------------------------
A-7-----------------------2--------------------------------------
E--------------------------0-------------3~5---3~5---3~5---------

Gtr 1 (65 seconds-end)

E------------------------------------------------------------------------------------------
B------------------------------------------------------------------------------------------
G-------7-------7---------7--------7--------7-------7---------7---------7-----------7------
D-----7-------7--------7---------7-------7--------7--------7---------7----------7----------
A---8------7--------5---------8-------7--------5--------8---------7---------5--------------
E------------------------------------------------------------------------------------------




Gtr 2   u can work out where it all fits.

E------------------------------------------------------------------------------------------
B---17-------------15---17---15-----------------17-----------------------------------------
G-------14---17--------------------17---14------------17-14-17-14-17-14--------------------
D-----------------------------------------------------------------------------------14-----
A------------------------------------------------------------------------------------------
E------------------------------------------------------------------------------------------

E------------------------------------------------------------------------------------------
B------------------------------------------------------------------------------------------
G---------------------------------------17-17-17-------------------------------------------
D---17-14-14-17-14-17-14-17-14-------------17-17---15~14-----------------------------------
A------------------------------------------------------------------------------------------
E------------------------------------------------------------------------------------------

E-------------------------------------------------------------------------------------------
B---------17-17-17-15-----------------------------------------------------------------------
G -14--------------------17-17---14-14-17-17-14-14-17-14-17-14------------------------------
D-------------------------------------------------------------------------------------------
A-------------------------------------------------------------------------------------------
E-------------------------------------------------------------------------------------------

E--------------------------------------------------------------------------------------------
B------------------------------------------------15---------------------------------------15-
G---14----------14-14-17-14-17-17-17-17-----17---14-14-17-14-17-17-17-17---------------------
D-------14-15--------------------------------------------------------------------------------
A--------------------------------------------------------------------------------------------
E--------------------------------------------------------------------------------------------

E--------------------------------------------------------------------------------------------
B--------------------------------------------------------------------------------------------
G-----14-------------------------------------------------------------------------------------
D-17-----17-15-14~12-------------------------------------------------------------------------
A---------------------------------14---12----------------------------------------------------
E-----------------------------12------------12~10~5------------------------------------------

E----------------------------------------------------15------15--------16---17bu-------------
B------------17-17------------15---17-17---17------17-------17-------------------------------
G---17-14------------17-17-------------------------------------------------------------------
D--------------------------------------------------------------------------------------------
A--------------------------------------------------------------------------------------------
E--------------------------------------------------------------------------------------------

E---17-15------------------------------------------------------------------------------------
B-----------17-15----------------------------------------------------------------------------
G--------------------17-14----------17-14----------------------------------------------------
D-----------------------------17-14-----------14-14---17-14-15---(carry on picking)----------
A--------------------------------------------------------------------------------------------


Important: The song above is NOT stored on the Chordie server. The original song is hosted at www.xguitar.com. Chordie works as a search engine and provides on-the-fly formatting. Chordie does not index songs against artists'/composers' will. To remove this song please click here.

This song is displayed as text-only. Transposing and tuning is only available for chordpro-songs.

Login - add to songbook

Rating click stars to rate

Layout
Accuracy

SHARE PAGE  




You need to log in to post comments