Guitar Tabs, Chords and Lyrics


Going Inside   John Frusciante

E||--3--------3--------|--3--------3--------|--------1-----------------|--------1-----------------|--3--------3--------|


B||--3--------3--------|--5--------5--------|-----------1--------3-----|-----------1--------3-----|--3--------3--------|


G||--3--------3--------|--5--------5--------|-----3-----------0-----0--|-----3-----------0-----0--|--3--------3--------|

D||--5--------5--------|--5--------5--------|--1-----------------------|--1-----------------------|--5--------5--------|
A||--5--------5--------|--3--------3--------|--------------3-----------|--------------3-----------|--5--------5--------|
E||--3--------3--------|--------------------|--------------------------|--------------------------|--3--------3--------|
E||--------------------|--------------------|--------------------------|--------------------------|--10----------10-13-|
B||--------------------|--------------------|--------------------------|--------------------------|--------------------|
G||--------------------|--------------------|--------------------------|--------------------------|--------------------|
D||--------------------|--------------------|--------------------------|--------------------------|--------------------|
A||--------------------|--------------------|--------------------------|--------------------------|--------------------|
E||--------------------|--------------------|--------------------------|--------------------------|--------------------|
--3-------3-----------|--------1-----------------|--------1-----------------|--3--------3--------|--3--------3------|
--5-------5-----------|-----------1--------3-----|-----------1--------3-----|--3--------3--------|--5--------5------|
--5-------5-----------|-----3-----------0-----0--|-----3-----------0-----0--|--3--------3--------|--5--------5------|
--5-------5-----------|--1-----------------------|--1-----------------------|--5--------5--------|--5--------5------|
--3-------3-----------|--------------3-----------|--------------3-----------|--5--------5--------|--3--------3------|
----------------------|--------------------------|--------------------------|--3--------3--------|------------------|
----------------------|--------------------------|--------------------------|--------------------|------------------|
----------------------|--------------------------|--------------------------|--------------------|------------------|
-12----------14-15-14-|--12----------------------|--12----------------10-9--|--7-------------5-4-|--0--------19b----|
----------------------|--------------------------|--------------------------|--------------------|------------------|
----------------------|--------------------------|--------------------------|--------------------|------------------|
----------------------|--------------------------|--------------------------|--------------------|------------------|
--------1-----------------|--------1-----------------|--3--------3--------|--3--------3--------|
-----------1--------3-----|-----------1--------3-----|--3--------3--------|--5--------5--------|
-----3-----------0-----0--|-----3-----------0-----0--|--3--------3--------|--5--------5--------|
--1-----------------------|--1-----------------------|--5--------5--------|--5--------5--------|
--------------3-----------|--------------3-----------|--5--------5--------|--3--------3--------|
--------------------------|--------------------------|--3--------3--------|--------------------|
--------------------------|--------------------------|--16p15----15-------|--------------------|
--------------------------|--------------------------|--------------------|--11-------8h11-----|
-------19b----------------|----19b--19b--19b--19b----|--------------------|--------------------|
--------------------------|--------------------------|--------------------|--------------------|
--------------------------|--------------------------|--------------------|--------------------|
--------------------------|--------------------------|--------------------|--------------------|
--------1-----------------|--------1-----------------||
-----------1--------3-----|-----------1--------3-----||
-----3-----------0-----0--|-----3-----------0-----0--||
--1-----------------------|--1-----------------------||
--------------3-----------|--------------3-----------||
--------------------------|--------------------------||
--------------------------|--------------------------||
--8-----8-----8-----8-----|--8-----8-----8-----8-----||
--------------------------|--------------------------||
--------------------------|--------------------------||
--------------------------|--------------------------||
--------------------------|--------------------------||
[Gmin]You don't throw your [F]life away
[C]Going in[Gmin]side
[Gmin]You get to know who [F]watching you
And you [C]decide who [Gmin]resides
[Gmin]In your [F]body
Where you're [C]slow
Where you [Gmin]go, doesn't matter
Cos there will [Gmin]come a time
When [F]time goes out the [C]window    [Gmin]
And you'll [Bb]learn to drive out of [F]focus
I'm [Cmin]you          [Gmin]
And if [Bb]anything un[F]folds,
It's [Cmin]supposed to   [Eb]
Ooo


============
Repeat Intro
============


=======
Verse 2
=======

[Gmin]You don't throw your [F]time away

Sitting s[C]till     [Gmin]
[Gmin]I'm in a chain of [F]memories
It's my [C]will      [Gmin]
And I [Gmin]had to consult some [F]figures
Of the [C]past       [Gmin]
And I [Gmin]know someone [F]after me
Will go [C]right back     [Gmin]
[Bb]I'm not [F]telling
A [Cmin]view     [Gmin]
[Bb]I've got this [F]night
To un[Cmin]glue      [Eb]
[Bb]I'll loot this [F]spite a[Cmin]way    [Gmin]
By [Bb]doing things there's no [F]reason
To [Cmin]do       [Eb]
Ooo

=====
Outro
=====


Fig A Repeat x 3
|-1--1--1---1--1--1---3--3--3--3--3--3--|----------------------------|
|-3--3--3---1--1--1---5--5--5--5--5--5--|----------------------------|
|-3--3--3---2--2--2---5--5--5--5--5--5--|*-------10-----------------*|
|-3--3--3---3--3--3---5--5--5--5--5--5--|*----8------8--------12----*|
|-1--1--1---3--3--3---3--3--3--3--3--3--|--6---------------10-----10-|
|-----------1--1--1---------------------|---------------8------------|
|-1-1-1-1-1--
|-1-1-1-1-1--
|-2-2-2-2-2--
|-3-3-3-3-3--
|-3-3-3-3-3--
|-1-1-1-1-1--



Repeat Fig A


End on Gmin.

Important: The song above is NOT stored on the Chordie server. The original song is hosted at www.xguitar.com. Chordie works as a search engine and provides on-the-fly formatting. Chordie does not index songs against artists'/composers' will. To remove this song please click here.

Text color:
Chord color:
Chord grids: 
Font size:    
Page size: 

Bb C Cmin Eb F Gmin
variations - click chord images

Login - add to songbook

Transpose chords

Tuning

Rating click stars to rate

Layout
Accuracy

SHARE PAGE  




You need to log in to post comments