Guitar Tabs, Chords and Lyrics


Murderers    John Frusciante



John Frusciante
Murderers
Tabbed by Maxi (maxx8711@aol.com)


Main Riff (backround: A|-9~-|)
E|---------------------9---12-----------------|
B|----12----9--10--10---------12--10--9--10---|
G|--------------------------------------------|
D|--------------------------------------------|
A|--------------------------------------------|
E|--------------------------------------------|

E|--------------------------9-----------------|
B|----12----9--10--10--12-----12--10--9--10---|
G|--------------------------------------------|
D|--------------------------------------------|
A|--------------------------------------------|
E|--------------------------------------------|


Pre Part
E|---(7)-----(9)---(9)----(4)---|
B|----9------10-----9------6----|
G|----9------11-----9------6----|
D|----9------11-----9------6----|
A|----7-------9-----7------4----|
E|------------------------------|


Riff II (these are the notes in the right order, but play them more than one time)
E|-----------------|---------------------|---12------------|------------|
B|---7-----9---10--|---7----9--12-----10-|------(12)--9/10-|---7---9--6-|
G|-----------------|---------------------|-----------------|------------|
D|-----------------|---------------------|-----------------|------------|
A|-5-----7----9----|-5----7----11---9----|------(11)-7/9---|-5---7----4-|
E|-----------------|---------------------|-12--------------|------------|


Pre-Solo
E|------------------------------------------7---|
B|--8/9-x-10----8/9-x-12-10----8/9--10--x---7---|
G|------------------------------------------8---|
D|------------------------------------------9---|    2x
A|------------------------------------------9---|
E|------------------------------------------7---|


Solo (Dist.)
E|--------------------------------------------------------|
B|--------------------------------------------------------|
G|--------------------------------------------------------|
D|--------------------------------------------------------|
A|--9--9--9--9--999--9--9--9--9--9999--9--9--9--9--999/8--|
E|--------------------------------------------------------|


End
E|----9---|
B|---10---|
G|---11---|
D|---11---|
A|----9---|


Important: The song above is NOT stored on the Chordie server. The original song is hosted at www.xguitar.com. Chordie works as a search engine and provides on-the-fly formatting. Chordie does not index songs against artists'/composers' will. To remove this song please click here.

This song is displayed as text-only. Transposing and tuning is only available for chordpro-songs.

Login - add to songbook

Rating click stars to rate

Layout
Accuracy

SHARE PAGE  




You need to log in to post comments