Guitar Tabs, Chords and Lyrics


With No One   John Frusciante

    [A]                [E]                [F#m] 
E|-------------------------------------------------------------------|
B|----------2-0-----------------------------2---------------2--------|
G|------2-------2-----------2-1-----------------1-2-------------1-2--|
D|----2---2-------2-----2-------2-------4---------------4------------|
A|--0-----------------2---2-------2---4---4---4-------4---4---4------|
E|------------------0---------------2---------------2----------------|


    [A]                [E]                [F#m] 
E|----------2-0------------------------------------------------------|
B|--------------------------2---------------2------------------------|
G|------2-------2-------------1-------------------------2-----2------|
D|----2---2-------2-----2-------2-------4-----4-------4---4-----4----|
A|--0-----------------2---2-------2---4---4-----4---4-------4-----4--|
E|------------------0---------------2-------------2------------------|


    [A]                [E]                [F#m] 
E|-------------------------------------------------------------------|
B|-------------------------------------------------------------------|
G|------2---2-1---------------1--------------------------------------|
D|----2---2-----2-------2---------------4-------4-----4-----4-----4--|
A|--0-------------0---2---2-----------4---4---4---4-------4-----4----|
E|------------------0-------0---0-1-2-------2-------2---2-----2------|



After verses part (strum this):

  You [A]know someone's [E]happened
  And you [F#m]shouldn't feed these [E]things but [D]lets [A]go

Verses:

    [A]                [E]                [F#m] 
E|-------------------------------------------------------------------|
B|----------2-0-----------------------------2---------------2--------|
G|------2-------2-----------2-1-----------------1-2-------------1-2--|
D|----2---2-------2-----2-------2-------4---------------4------------|
A|--0-----------------2---2-------2---4---4---4-------4---4---4------|
E|------------------0---------------2---------------2----------------|


    [A]                [E]                [F#m] 
E|----------2-0------------------------------------------------------|
B|------------------------------------------2---------------2--------|
G|------2-------2-----------2-1-----------------1-2-------------1-2--|
D|----2---2-------2-----2-------2-------4---------------4------------|
A|--0-----------------2---2-------2---4---4---4-------4---4---4------|
E|------------------0---------------2---------------2----------------|


    [A]                [E]                [F#m] 
E|-------------------------------------------------------------------|
B|-------------------------------------------------------------------|
G|------2---2-1---------------1--------------------------------------|
D|----2---2-----2-------2---------------4-------4-----4-----4-----4--|
A|--0-------------0---2---2-----------4---4---4---4-------4-----4----|
E|------------------0-------0---0-1-2-------2-------2---2-----2------|


    [A]                [E]                [F#m] 
E|-------------------------------------------------------------------|
B|----------2-0-----------------------------2---------------2--------|
G|------2-------2-----------2-1-----------------1-2-------------1-2--|
D|----2---2-------2-----2-------2-------4---------------4------------|
A|--0-----------------2---2-------2---4---4---4-------4---4---4------|
E|------------------0---------------2---------------2----------------|


    [A]                [E]                 
E|----------2-0----------------------|
B|-----------------------------------|
G|------2-------2-----------2-1------|
D|----2---2-------2-----2-------2----|
A|--0-----------------2---2-------2--|
E|------------------0----------------|



After verses part 2 (strum):

  You fade to w[F#m]hite    [E]     [D]
  You [F#m]lay me down as I [E]go to the [D]store
  [F#m]Sorrow ate me, I'm not [E]me anymo[D]re   [E]   [D]
  [F#m]Play these heavens o[E]ne more t[D]ime
  [F#m]I'm not yours and I[E]'m not m[D]ine    [E]    [D]
  [F#m]Fly around [E]  [D]
  [F#m]Fly around [E]  [D]
  [F#m]Fly around [E]  [D]
  [E]Fly around [D]

...
(All way trough end)

Important: The song above is NOT stored on the Chordie server. The original song is hosted at www.xguitar.com. Chordie works as a search engine and provides on-the-fly formatting. Chordie does not index songs against artists'/composers' will. To remove this song please click here.

Text color:
Chord color:
Chord grids: 
Font size:    
Page size: 

A D E F#m
variations - click chord images

Login - add to songbook

Transpose chords

Tuning

Rating click stars to rate

Layout
Accuracy

SHARE PAGE  




You need to log in to post comments