Guitar Tabs, Chords and Lyrics


A Doubt   John Frusciante

----------------------------------------------------------------------------



----------------------------------------------------------------------------

e|--3-3---3-3---5---5--5--5--5--5--5--5--5--5--5----|
B|--3-3---3-3---5----6--6--6--6--6--6--6--6--6--6---|
G|--3-3---3-3---6-----7--7--7--7--7--7--7--7--7--7--| X 2
D|--5-5---5-5---7-----------------------------------|
A|--5-5---5-5---7-----------------------------------|
E|--3-3---3-3---5-----------------------------------|
    [Gm]            [A]                     
riff A:

e|-5--5--5--5--5--5--5--5--5--5-----|
B|--6--6--6--6--6--6--6--6--6--6----|
G|---7--7--7--7--7--7--7--7--7--7---|
D|----------------------------------|
A|----------------------------------|
E|----------------------------------|


riff B:

e|---------------------------|
B|---------------------------|
G|-7--7-7-7--7-7-7--10-3-5-7-|
D|-7--7-7-7--7-7-7--10-3-5-7-|
A|-5--5-5-5--5-5-5--8--1-3-5-|
E|---------------------------|

D F A#c D


[Gm]   [A]  [Dm]Everyone speaks at the same time
[Gm]   [A]  [Dm]Everyone wonders, "who am I?"
[Gm]   [A]  [F]It'd be sad to blow t[A]hrough time
[Gm]   [A]  [Dm]We never go through the sky
[Gm]   [A]  [Dm]We never know when to die
Gm A riff B
Lean in to walk

riff B
We dreamed up tonight

riff B
Lean in to walk

riff B
We dreamed up tonight

riff B D C A#
We dreamed up tonight

Gm A riff A
We all choose to live life

Gm A riff A
We confuse how with why

[Gm]   [A]  [F]Everyday is [A]lost as it goes by

[Gm]   [A]  [Dm]These moments don't compute
[Gm]   [A]  [Dm]And I wind up next to you
Gm A D F C D D riff B
And all that I need is a doubt

D A C D D riff B
That's all one that feeds the mouth

     [C]One simple [Dm]means is to [C]leave it b[Dm]y the door

C Dm C Dm ...
Oh ohh oh ohh ...

c Dm C Dm
One time to play is the time you play for

C Dm C Dm ...
Oh ohh oh ohh ...

C Dm ...
And you never set a limit

Solo ( Play riff B during the solo and the rest of the song)

riff B
Lean in to walk

riff B
There's nothing missing from life

riff B
Lean in to walk

riff B
There's nothing missing from life

riff B
There's nothing missing from life

riff B
Lean in to walk

riff B
There's nothing missing from life

riff B
Lean in to walk


riff B
We dreamed up tonight

C Dm ...
And you never set a limit


Solo: Lots of feedback

e|---------------------------------------------------------18~~~~----------|
B|-10----10----10----- repeat several  --15----15----15--------------------|
G|-12(14)12(14)12(14)-  times    --------17(19)17(19)17(19)--------19+-----|
D|-------------------------------------------------------------------------|
A|-------------------------------------------------------------------------|
E|-------------------------------------------------------------------------|



| ~ vibrato
| + harmonic

============================================================================

Important: The song above is NOT stored on the Chordie server. The original song is hosted at www.xguitar.com. Chordie works as a search engine and provides on-the-fly formatting. Chordie does not index songs against artists/composers will. To remove this song please click here.

Text color:
Chord color:
Chord grids: 
Font size:    
Page size: 

A C Dm F Gm
variations - click chord images

Login - add to songbook

Transpose chords

Tuning

Rating click stars to rate

Layout
Accuracy

SHARE PAGE  




You need to log in to post comments