Guitar Tabs, Chords and Lyrics


The Days Have Turned   John Frusciante

      [Bm]           [A]       [Em]                                                
e|-----------|-------|-------|
B|----33-----|-----2-|-------|
G|----44-4---|-----2-|-----0-|
D|--4------4-|---2---|-----2-|
A|-2---------|-0-----|---2---|
E|-----------|-------|-0-----|


Chorus picking pattern

     [G]         [D]          [A]        [Bm]           [A1]            [Bm(1]                 
e|----3---|-----3-2-|-------|---------|-----------|-------------|
B|----3---|-----3-3-|-----2-|-----3---|---2-----2-|-----[3]h5p3-|
G|------0-|---2-----|-----2-|-----4---|---2-----2-|-----[4]-----|
D|--0-----|-0-------|---2---|---4---4-|-------2---|---4---------|
A|--------|---------|-0-----|-2-------|-0---0-----|-2-----------|
E|-3------|---------|-------|---------|-----------|-------------|


Verse

[Bm]The days have turned away from me [A]  [Em]
The [Bm]lights no longer shine [A]on my [Em]head
And [Bm]people turn away from me [A]  [Em]
[Bm]No more do they look to me [A]with [Em]respect

Chorus

G D A Bm x2

Well I [G]know [D]now
It's [A]the first [Bm]time
That was [G]fun [D]now
From [A]life I've [Bm]resigned
When I [G]feel I've [D]got problems [A]how wrong I [Bm]am
I'm a[G]waiting [D]life as [A]another [Bm]man

Don't crowd me

[G]  [D]  [A]  [Bm]                               
[G]  [D]  [A1]                                 
Verse

[Bm]There's riddles in the shadows [A]  [Em]
[Bm]They're thrown the way that [A]I'd [Em]expect
And [Bm]people never seem to know [A]  [Em]
[Bm]What they least suspect is [A]coming [Em]next

Pre-chorus

Guitar 2: e|-19- (sustain for eight seconds, gradually bending)

Chorus

G D A Bm x2

Well it [G]seems [D]like [A]times [Bm]elasped
And I've [G]stabbed [D]life [A]in the [Bm]back
I'm [G]searching for [D]what [A]it [Bm]means
To [G]never be a[D]nything a[A]nythin[Bm(1]g

[G]  [D]  [A]  [Bm(1]                               
[G]  [D]  [A]  [Bm]                               
And I [G]know [D]now
It's [A]the first [Bm]time
That was [G]fun [D]now
From [A]life I've [Bm]resigned
When I [G]feel I've [D]got problems [A]how wrong I [Bm]am
I'm [G]awaiting [D]life as [A]another [Bm]man
[G]Hey [D]now-[A]ow-[Bm(1]ow
G D A(1) (finish with a strummed Bm)

Important: The song above is NOT stored on the Chordie server. The original song is hosted at www.xguitar.com. Chordie works as a search engine and provides on-the-fly formatting. Chordie does not index songs against artists'/composers' will. To remove this song please click here.

Text color:
Chord color:
Chord grids: 
Font size:    
Page size: 

A Bm D Em G
variations - click chord images

Login - add to songbook

Transpose chords

Tuning

Rating click stars to rate

Layout
Accuracy

SHARE PAGE  




You need to log in to post comments