Guitar Tabs, Chords and Lyrics


Loss   John Frusciante

     [A]     [E]     [C#]    [C#7]     [F#m]      [D]                                                     
E----0----0----x----x----x----x--------------------------------|
A----0----2----4----4----x----0--------------------------------|
D----2----2----6----3----4----0--------------------------------|
G----2----1----6----4----2----2--------------------------------|
B----2----0----6----0----2----3--------------------------------|
E----0----0----x----x----x----2--------------------------------|



Intro and Verse:

A - E - C# - C#7 - F#m*

Refrain at timecode 1:40:

3x: E - F#m
Then: B#m - F#m - A

Outro at timecode 3:40:

[A]  [-]  [E]  [-]  [D]                             

All Soli are best played with extensive hall

Solo (4:17):

E||----------------------||
B||-----10b-10b---9------||
G||----------------------||
D||----------------------||
A||----------------------||
E||----------------------||



Solo2 (4:37):

E||------12b-------------||
B||----------------------||
G||----------------------||
D||----------------------||
A||----------------------||
E||----------------------||



Solo3 (4:46):

E||9--12-10 10-9-----------------------------9---------9--12-10 10-9------||
B||---------------10-----12b--10------10 9 9--------------------------9h10||
G||--------------------------------------------11-------------------------||
D||-----------------------------------------------------------------------||
A||-----------------------------------------------------------------------||
E||-----------------------------------------------------------------------||


Important: The song above is NOT stored on the Chordie server. The original song is hosted at www.xguitar.com. Chordie works as a search engine and provides on-the-fly formatting. Chordie does not index songs against artists'/composers' will. To remove this song please click here.

Text color:
Chord color:
Chord grids: 
Font size:    
Page size: 

A C# C#7 D E F#m
variations - click chord images

Login - add to songbook

Transpose chords

Tuning

Rating click stars to rate

Layout
Accuracy

SHARE PAGE  




You need to log in to post comments